  0
SECTION
  2
HEADER
  9
$ACADVER
  1
AC1009
  9
$INSBASE
 10
0
 20
0
 30
0
  9
$EXTMIN
 10
0
 20
0
  9
$EXTMAX
 10
297.25
 20
210.25
  9
$LIMMIN
 10
0
 20
0
  9
$LIMMAX
 10
297.25
 20
210.25
  9
$LTSCALE
 40
0.25
  0
ENDSEC
  0
SECTION
  2
TABLES
  0
TABLE
  2
LTYPE
 70
     9
  0
LTYPE
  2
CONTINUOUS
 70
    64
  3
実線
 72
    65
 73
     0
 40
0.0
  0
LTYPE
  2
DASHED1
 70
    64
  3
--  --  --  --  --  --  --  --  
 72
    65
 73
     2
 40
2.5
 49
1.25
 49
-1.25
  0
LTYPE
  2
DASHED2
 70
    64
  3
----    ----    ----    ----    
 72
    65
 73
     2
 40
5.0
 49
2.5
 49
-2.5
  0
LTYPE
  2
DASHED3
 70
    64
  3
------  ------  ------  ------  
 72
    65
 73
     2
 40
5.0
 49
3.75
 49
-1.25
  0
LTYPE
  2
CENTER1
 70
    64
  3
----- - ----- - ----- - ----- - 
 72
    65
 73
     4
 40
10.0
 49
6.25
 49
-1.25
 49
1.25
 49
-1.25
  0
LTYPE
  2
CENTER2
 70
    64
  3
----------  --  ----------  --  
 72
    65
 73
     4
 40
20.0
 49
12.5
 49
-2.5
 49
2.5
 49
-2.5
  0
LTYPE
  2
PHANTOM1
 70
    64
  3
--- - - --- - - --- - - --- - - 
 72
    65
 73
     6
 40
10.0
 49
3.25
 49
-1.25
 49
1.25
 49
-1.25
 49
1.25
 49
-1.25
  0
LTYPE
  2
PHANTOM2
 70
    64
  3
--------  -  -  --------  -  -  
 72
    65
 73
     6
 40
20.0
 49
10.0
 49
-2.5
 49
1.25
 49
-2.5
 49
1.25
 49
-2.5
  0
LTYPE
  2
DOT
 70
    64
  3
-   -   -   -   -   -   -   -   
 72
    65
 73
     2
 40
2.5
 49
0.625
 49
-1.875
  0
LTYPE
  2
DUMMY
 70
    64
  3
ダミー
 72
    65
 73
     0
 40
0.0
  0
LTYPE
  2
RAND1
 70
    64
  3
----- - ----- - ----- - ----- - 
 72
    65
 73
     4
 40
10.0
 49
6.25
 49
-1.25
 49
1.25
 49
-1.25
  0
LTYPE
  2
RAND2
 70
    64
  3
----------  --  ----------  --  
 72
    65
 73
     4
 40
20.0
 49
12.5
 49
-2.5
 49
2.5
 49
-2.5
  0
LTYPE
  2
RAND3
 70
    64
  3
--- - - --- - - --- - - --- - - 
 72
    65
 73
     6
 40
10.0
 49
3.25
 49
-1.25
 49
1.25
 49
-1.25
 49
1.25
 49
-1.25
  0
LTYPE
  2
RAND4
 70
    64
  3
--------  -  -  --------  -  -  
 72
    65
 73
     6
 40
20.0
 49
10.0
 49
-2.5
 49
1.25
 49
-2.5
 49
1.25
 49
-2.5
  0
LTYPE
  2
RAND5
 70
    64
  3
----- - ----- - ----- - ----- - 
 72
    65
 73
     4
 40
10.0
 49
6.25
 49
-1.25
 49
1.25
 49
-1.25
  0
LTYPE
  2
LONG1
 70
    64
  3
----------  --  ----------  --  
 72
    65
 73
     4
 40
20.0
 49
12.5
 49
-2.5
 49
2.5
 49
-2.5
  0
LTYPE
  2
LONG2
 70
    64
  3
--- - - --- - - --- - - --- - - 
 72
    65
 73
     6
 40
10.0
 49
3.25
 49
-1.25
 49
1.25
 49
-1.25
 49
1.25
 49
-1.25
  0
LTYPE
  2
LONG3
 70
    64
  3
--------  -  -  --------  -  -  
 72
    65
 73
     6
 40
20.0
 49
10.0
 49
-2.5
 49
1.25
 49
-2.5
 49
1.25
 49
-2.5
  0
LTYPE
  2
LONG4
 70
    64
  3
----- - ----- - ----- - ----- - 
 72
    65
 73
     4
 40
10.0
 49
6.25
 49
-1.25
 49
1.25
 49
-1.25
  0
LTYPE
  2
LONG5
 70
    64
  3
----------  --  ----------  --  
 72
    65
 73
     4
 40
20.0
 49
12.5
 49
-2.5
 49
2.5
 49
-2.5
  0
ENDTAB
  0
TABLE
  2
STYLE
  5
3
100
AcDbSymbolTable
 70
     1
  0
STYLE
  5
10
100
AcDbSymbolTableRecord
100
AcDbTextStyleTableRecord
  2
STANDARD
 70
     0
 40
0.0
 41
1.0
 50
0.0
 71
     0
 42
0.2
  3
txt
  4
bigfont.shx
  0
ENDTAB
  0
TABLE
  2
LAYER
 70
    9
  0
LAYER
  2
_0-0_0
 70
   64
 62
    7
  6
CONTINUOUS
  0
LAYER
  2
_0-1_0-0
 70
   64
 62
    7
  6
CONTINUOUS
  0
LAYER
  2
_0-2_0-2
 70
   64
 62
    7
  6
CONTINUOUS
  0
LAYER
  2
_0-3_1-0
 70
   64
 62
    7
  6
CONTINUOUS
  0
LAYER
  2
_0-4_1-1
 70
   64
 62
    7
  6
CONTINUOUS
  0
LAYER
  2
_0-5_1-2
 70
   64
 62
    7
  6
CONTINUOUS
  0
LAYER
  2
_0-6_2-0
 70
   64
 62
    7
  6
CONTINUOUS
  0
LAYER
  2
_0-7_2-1
 70
   64
 62
    7
  6
CONTINUOUS
  0
LAYER
  2
ADD_LINE
 70
   64
 62
    7
  6
CONTINUOUS
  0
ENDTAB
  0
ENDSEC
  0
SECTION
  2
BLOCKS
  0
BLOCK
  2
-000-_MODEL_SPACE
 70
   64
 10
0
 20
0
 30
0
  0
ENDBLK
  0
BLOCK
  2
-001-_PAPER_SPACE
 70
   64
 10
0
 20
0
 30
0
  0
ENDBLK
  0
ENDSEC
  0
SECTION
  2
ENTITIES
  0
LINE
  8
_0-1_0-0
  6
CONTINUOUS
 62
    7
 10
238.36299
 20
12.414029
 11
238.36299
 21
-36.085975
  0
LINE
  8
_0-1_0-0
  6
CONTINUOUS
 62
    7
 10
305.36304
 20
12.414029
 11
305.36304
 21
-36.085975
  0
LINE
  8
_0-1_0-0
  6
CONTINUOUS
 62
    7
 10
317.32027
 20
12.233992
 11
317.32027
 21
5.112009
  0
LINE
  8
_0-1_0-0
  6
CONTINUOUS
 62
    7
 10
291.86305
 20
12.414029
 11
291.86305
 21
5.112009
  0
LINE
  8
_0-1_0-0
  6
CONTINUOUS
 62
    7
 10
245.36299
 20
12.414029
 11
245.36299
 21
5.112009
  0
LINE
  8
_0-1_0-0
  6
CONTINUOUS
 62
    7
 10
247.90801
 20
-4.037805
 11
300.50107
 21
-4.037805
  0
LINE
  8
_0-1_0-0
  6
CONTINUOUS
 62
    7
 10
329.6939
 20
12.414029
 11
329.6939
 21
-22.554172
  0
LINE
  8
_0-1_0-0
  6
CONTINUOUS
 62
    7
 10
314.62924
 20
-33.332642
 11
320.48966
 21
-33.332642
  0
LINE
  8
_0-1_0-0
  6
CONTINUOUS
 62
    7
 10
327.08252
 20
-33.332642
 11
333.91968
 21
-33.332642
  0
LINE
  8
_0-1_0-0
  6
CONTINUOUS
 62
    7
 10
251.86299
 20
-15.507321
 11
251.86299
 21
-22.34443
  0
LINE
  8
_0-1_0-0
  6
CONTINUOUS
 62
    7
 10
280.05584
 20
-15.507321
 11
280.05584
 21
-22.34443
  0
LINE
  8
_0-1_0-0
  6
CONTINUOUS
 62
    7
 10
293.55583
 20
-15.507321
 11
293.55583
 21
-22.34443
  0
LINE
  8
_0-1_0-0
  6
CONTINUOUS
 62
    7
 10
239.24984
 20
-29.032466
 11
243.26812
 21
-25.884126
  0
LINE
  8
_0-1_0-0
  6
CONTINUOUS
 62
    7
 10
239.24984
 20
-29.032466
 11
243.27151
 21
-32.233386
  0
LINE
  8
_0-1_0-0
  6
CONTINUOUS
 62
    7
 10
243.27151
 20
-32.233386
 11
247.31752
 21
-29.063297
  0
LINE
  8
_0-1_0-0
  6
CONTINUOUS
 62
    7
 10
243.26812
 20
-25.840286
 11
247.31752
 21
-29.063297
  0
LINE
  8
_0-1_0-0
  6
CONTINUOUS
 62
    7
 10
135.88803
 20
243.4099
 11
139.90633
 21
246.55818
  0
LINE
  8
_0-1_0-0
  6
CONTINUOUS
 62
    7
 10
135.88803
 20
243.4099
 11
139.90973
 21
240.20897
  0
LINE
  8
_0-1_0-0
  6
CONTINUOUS
 62
    7
 10
139.90973
 20
240.20897
 11
143.95576
 21
243.37902
  0
LINE
  8
_0-1_0-0
  6
CONTINUOUS
 62
    7
 10
139.90633
 20
246.60205
 11
143.95576
 21
243.37902
  0
LINE
  8
_0-1_0-0
  6
CONTINUOUS
 62
    7
 10
238.36299
 20
-22.585982
 11
347.32223
 21
-22.585982
  0
LINE
  8
_0-1_0-0
  6
CONTINUOUS
 62
    7
 10
238.36299
 20
-15.585981
 11
347.32223
 21
-15.585981
  0
LINE
  8
_0-1_0-0
  6
CONTINUOUS
 62
    7
 10
305.43168
 20
-1.835984
 11
347.32223
 21
-1.835984
  0
LINE
  8
_0-1_0-0
  6
CONTINUOUS
 62
    7
 10
238.36299
 20
12.414029
 11
346.90361
 21
12.414029
  0
LINE
  8
_0-1_0-0
  6
CONTINUOUS
 62
    7
 10
238.36299
 20
-8.58599
 11
347.3154
 21
-8.58599
  0
LINE
  8
_0-1_0-0
  6
CONTINUOUS
 62
    7
 10
238.36299
 20
4.914026
 11
347.22781
 21
4.914026
  0
LINE
  8
_0-1_0-0
  6
CONTINUOUS
 62
    7
 10
260.36299
 20
-8.782903
 11
260.36299
 21
-15.507321
  0
LINE
  8
_0-1_0-0
  6
CONTINUOUS
 62
    7
 10
-56.773486
 20
243.37769
 11
135.89082
 21
243.37769
  0
LINE
  8
_0-1_0-0
  6
CONTINUOUS
 62
    7
 10
143.9503
 20
243.37769
 11
347.35393
 21
243.37769
  0
LINE
  8
_0-1_0-0
  6
CONTINUOUS
 62
    7
 10
347.35393
 20
243.37769
 11
347.35393
 21
-36.352051
  0
LINE
  8
_0-1_0-0
  6
CONTINUOUS
 62
    7
 10
-56.773486
 20
-36.352051
 11
-56.773486
 21
243.37769
  0
LINE
  8
_0-1_0-0
  6
CONTINUOUS
 62
    7
 10
-56.773486
 20
-36.352051
 11
347.35393
 21
-36.352051
  0
LINE
  8
_0-2_0-2
  6
CONTINUOUS
 62
    7
 10
234.24579
 20
205.2696
 11
234.24579
 21
165.26962
  0
LINE
  8
_0-2_0-2
  6
CONTINUOUS
 62
    7
 10
219.24579
 20
230.26959
 11
219.24579
 21
145.26958
  0
LINE
  8
_0-2_0-2
  6
CONTINUOUS
 62
    7
 10
259.2458
 20
225.2696
 11
259.2458
 21
145.26958
  0
LINE
  8
_0-2_0-2
  6
CONTINUOUS
 62
    7
 10
219.24579
 20
145.26958
 11
339.05348
 21
145.26958
  0
LINE
  8
_0-2_0-2
  6
CONTINUOUS
 62
    7
 10
219.24579
 20
150.26962
 11
339.24582
 21
150.26962
  0
LINE
  8
_0-2_0-2
  6
CONTINUOUS
 62
    7
 10
219.24579
 20
155.26961
 11
339.24582
 21
155.26961
  0
LINE
  8
_0-2_0-2
  6
CONTINUOUS
 62
    7
 10
219.24579
 20
160.2696
 11
339.24582
 21
160.2696
  0
LINE
  8
_0-2_0-2
  6
CONTINUOUS
 62
    7
 10
219.24579
 20
165.26962
 11
339.24582
 21
165.26962
  0
LINE
  8
_0-2_0-2
  6
CONTINUOUS
 62
    7
 10
234.24579
 20
170.26961
 11
339.24582
 21
170.26961
  0
LINE
  8
_0-2_0-2
  6
CONTINUOUS
 62
    7
 10
234.24579
 20
175.2696
 11
339.24582
 21
175.2696
  0
LINE
  8
_0-2_0-2
  6
CONTINUOUS
 62
    7
 10
234.24579
 20
180.26962
 11
339.24582
 21
180.26962
  0
LINE
  8
_0-2_0-2
  6
CONTINUOUS
 62
    7
 10
219.24579
 20
185.26961
 11
339.24582
 21
185.26961
  0
LINE
  8
_0-2_0-2
  6
CONTINUOUS
 62
    7
 10
234.24579
 20
190.2696
 11
339.24582
 21
190.2696
  0
LINE
  8
_0-2_0-2
  6
CONTINUOUS
 62
    7
 10
234.24579
 20
195.26962
 11
339.24582
 21
195.26962
  0
LINE
  8
_0-2_0-2
  6
CONTINUOUS
 62
    7
 10
234.24579
 20
200.26961
 11
339.24582
 21
200.26961
  0
LINE
  8
_0-2_0-2
  6
CONTINUOUS
 62
    7
 10
219.24579
 20
205.2696
 11
339.24582
 21
205.2696
  0
LINE
  8
_0-2_0-2
  6
CONTINUOUS
 62
    7
 10
219.24579
 20
210.2696
 11
339.24582
 21
210.2696
  0
LINE
  8
_0-2_0-2
  6
CONTINUOUS
 62
    7
 10
219.24579
 20
215.26959
 11
339.24582
 21
215.26959
  0
LINE
  8
_0-2_0-2
  6
CONTINUOUS
 62
    7
 10
219.24579
 20
220.2696
 11
339.24582
 21
220.2696
  0
LINE
  8
_0-2_0-2
  6
CONTINUOUS
 62
    7
 10
219.24579
 20
225.2696
 11
339.24582
 21
225.2696
  0
LINE
  8
_0-2_0-2
  6
CONTINUOUS
 62
    7
 10
219.24579
 20
230.26959
 11
339.24582
 21
230.26959
  0
LINE
  8
_0-2_0-2
  6
CONTINUOUS
 62
    7
 10
339.24582
 20
230.26959
 11
339.24582
 21
145.26958
  0
LINE
  8
_0-2_0-2
  6
CONTINUOUS
 62
    7
 10
-56.773486
 20
238.37769
 11
-36.773488
 21
238.37769
  0
LINE
  8
_0-2_0-2
  6
CONTINUOUS
 62
    7
 10
-36.773488
 20
238.37769
 11
-36.773488
 21
243.37769
  0
LINE
  8
_0-2_0-2
  6
CONTINUOUS
 62
    7
 10
299.24581
 20
220.2696
 11
299.24581
 21
210.2696
  0
LINE
  8
_0-5_1-2
  6
CENTER1
 62
    2
 10
9.651212
 20
37.734664
 11
9.651212
 21
32.37002
  0
LINE
  8
_0-5_1-2
  6
CONTINUOUS
 62
    7
 10
6.351206
 20
35.256875
 11
12.951218
 21
35.256875
  0
LINE
  8
_0-5_1-2
  6
CONTINUOUS
 62
    7
 10
12.951218
 20
35.256875
 11
12.951218
 21
35.076937
  0
LINE
  8
_0-5_1-2
  6
CONTINUOUS
 62
    7
 10
1.694995
 20
32.708369
 11
1.694995
 21
32.575444
  0
LINE
  8
_0-5_1-2
  6
CONTINUOUS
 62
    7
 10
1.694995
 20
35.072805
 11
1.694995
 21
34.930379
  0
LINE
  8
_0-5_1-2
  6
CONTINUOUS
 62
    7
 10
0.766415
 20
34.92929
 11
0.766415
 21
32.566883
  0
LINE
  8
_0-5_1-2
  6
CONTINUOUS
 62
    7
 10
0.856409
 20
34.880074
 11
0.856409
 21
32.566883
  0
LINE
  8
_0-5_1-2
  6
CONTINUOUS
 62
    7
 10
18.534301
 20
34.919145
 11
18.534301
 21
32.703321
  0
LINE
  8
_0-5_1-2
  6
CONTINUOUS
 62
    7
 10
18.444307
 20
34.919145
 11
18.444307
 21
32.703321
  0
LINE
  8
_0-5_1-2
  6
CONTINUOUS
 62
    7
 10
17.604484
 20
32.713466
 11
17.604484
 21
32.571188
  0
LINE
  8
_0-5_1-2
  6
CONTINUOUS
 62
    7
 10
17.604484
 20
35.061423
 11
17.604484
 21
34.92929
  0
LINE
  8
_0-5_1-2
  6
CONTINUOUS
 62
    7
 10
-0.072245
 20
32.706884
 11
19.374681
 21
32.706884
  0
LINE
  8
_0-5_1-2
  6
CONTINUOUS
 62
    7
 10
19.374681
 20
32.706884
 11
19.374681
 21
32.566883
  0
LINE
  8
_0-5_1-2
  6
CONTINUOUS
 62
    7
 10
-0.072245
 20
32.566883
 11
19.374681
 21
32.566883
  0
LINE
  8
_0-5_1-2
  6
CONTINUOUS
 62
    7
 10
-0.072245
 20
34.926865
 11
19.374681
 21
34.926865
  0
LINE
  8
_0-5_1-2
  6
CONTINUOUS
 62
    7
 10
-0.072245
 20
35.066866
 11
19.374681
 21
35.066866
  0
LINE
  8
_0-5_1-2
  6
CONTINUOUS
 62
    7
 10
19.374681
 20
35.066866
 11
19.374681
 21
34.926865
  0
LINE
  8
_0-5_1-2
  6
CONTINUOUS
 62
    7
 10
-0.072245
 20
35.066866
 11
-0.072245
 21
34.925281
  0
LINE
  8
_0-5_1-2
  6
CONTINUOUS
 62
    7
 10
-0.072245
 20
32.708394
 11
-0.072245
 21
32.566883
  0
LINE
  8
_0-5_1-2
  6
CONTINUOUS
 62
    7
 10
1.311067
 20
34.880074
 11
1.311067
 21
32.665314
  0
LINE
  8
_0-5_1-2
  6
CONTINUOUS
 62
    7
 10
2.191087
 20
34.92929
 11
2.191087
 21
32.714555
  0
LINE
  8
_0-5_1-2
  6
CONTINUOUS
 62
    7
 10
17.104025
 20
34.880074
 11
17.104025
 21
32.714555
  0
LINE
  8
_0-5_1-2
  6
CONTINUOUS
 62
    7
 10
17.991121
 20
34.92929
 11
17.991121
 21
32.763746
  0
LINE
  8
_0-5_1-2
  6
CONTINUOUS
 62
    7
 10
2.281081
 20
34.92929
 11
2.281081
 21
32.714555
  0
LINE
  8
_0-5_1-2
  6
CONTINUOUS
 62
    7
 10
17.014031
 20
34.880074
 11
17.014031
 21
32.714555
  0
LINE
  8
_0-5_1-2
  6
CONTINUOUS
 62
    7
 10
6.45179
 20
64.657001
 11
6.45179
 21
64.466991
  0
LINE
  8
_0-5_1-2
  6
CONTINUOUS
 62
    7
 10
6.45179
 20
64.466991
 11
12.851784
 21
64.466991
  0
LINE
  8
_0-5_1-2
  6
CONTINUOUS
 62
    7
 10
12.191788
 20
64.461721
 11
12.191788
 21
49.765732
  0
LINE
  8
_0-5_1-2
  6
CONTINUOUS
 62
    7
 10
12.654735
 20
64.464271
 11
12.197058
 21
62.764361
  0
LINE
  8
_0-5_1-2
  6
CONTINUOUS
 62
    7
 10
12.851784
 20
64.657001
 11
12.851784
 21
64.465361
  0
LINE
  8
_0-5_1-2
  6
CONTINUOUS
 62
    7
 10
12.851784
 20
64.465361
 11
12.378654
 21
62.708001
  0
LINE
  8
_0-5_1-2
  6
CONTINUOUS
 62
    7
 10
12.378654
 20
62.708001
 11
12.196081
 21
62.757151
  0
LINE
  8
_0-5_1-2
  6
CONTINUOUS
 62
    7
 10
10.076783
 20
64.442311
 11
10.076783
 21
62.706991
  0
LINE
  8
_0-5_1-2
  6
CONTINUOUS
 62
    7
 10
10.076783
 20
62.706991
 11
10.426787
 21
62.706991
  0
LINE
  8
_0-5_1-2
  6
CONTINUOUS
 62
    7
 10
10.426787
 20
64.442311
 11
10.426787
 21
62.706991
  0
LINE
  8
_0-5_1-2
  6
CONTINUOUS
 62
    7
 10
6.648851
 20
64.464271
 11
7.106516
 21
62.764361
  0
LINE
  8
_0-5_1-2
  6
CONTINUOUS
 62
    7
 10
6.45179
 20
64.465361
 11
6.92492
 21
62.708001
  0
LINE
  8
_0-5_1-2
  6
CONTINUOUS
 62
    7
 10
6.92492
 20
62.708001
 11
7.107506
 21
62.757151
  0
LINE
  8
_0-5_1-2
  6
CONTINUOUS
 62
    7
 10
9.226778
 20
64.442311
 11
9.226778
 21
62.706991
  0
LINE
  8
_0-5_1-2
  6
CONTINUOUS
 62
    7
 10
9.226778
 20
62.706991
 11
8.876787
 21
62.706991
  0
LINE
  8
_0-5_1-2
  6
CONTINUOUS
 62
    7
 10
8.876787
 20
64.442311
 11
8.876787
 21
62.706991
  0
LINE
  8
_0-5_1-2
  6
CENTER1
 62
    4
 10
9.651781
 20
65.387051
 11
9.651781
 21
48.866783
  0
LINE
  8
_0-5_1-2
  6
CONTINUOUS
 62
    7
 10
11.701795
 20
64.473131
 11
11.701795
 21
49.704045
  0
LINE
  8
_0-5_1-2
  6
CONTINUOUS
 62
    7
 10
7.601791
 20
64.473131
 11
7.601791
 21
49.704045
  0
LINE
  8
_0-5_1-2
  6
CONTINUOUS
 62
    7
 10
8.063836
 20
49.670554
 11
8.063836
 21
64.462121
  0
LINE
  8
_0-5_1-2
  6
CONTINUOUS
 62
    7
 10
11.239738
 20
49.670554
 11
11.239738
 21
64.462121
  0
LINE
  8
_0-5_1-2
  6
CONTINUOUS
 62
    7
 10
6.45179
 20
35.256999
 11
6.45179
 21
35.446983
  0
LINE
  8
_0-5_1-2
  6
CONTINUOUS
 62
    7
 10
6.45179
 20
35.446983
 11
12.851784
 21
35.446983
  0
LINE
  8
_0-5_1-2
  6
CONTINUOUS
 62
    7
 10
6.45179
 20
35.256999
 11
12.851784
 21
35.256999
  0
LINE
  8
_0-5_1-2
  6
CONTINUOUS
 62
    7
 10
12.191788
 20
35.452254
 11
12.191788
 21
50.148262
  0
LINE
  8
_0-5_1-2
  6
CONTINUOUS
 62
    7
 10
12.654735
 20
35.449705
 11
12.197058
 21
37.149642
  0
LINE
  8
_0-5_1-2
  6
CONTINUOUS
 62
    7
 10
12.851784
 20
35.256999
 11
12.851784
 21
35.448641
  0
LINE
  8
_0-5_1-2
  6
CONTINUOUS
 62
    7
 10
12.851784
 20
35.448641
 11
12.378654
 21
37.205984
  0
LINE
  8
_0-5_1-2
  6
CONTINUOUS
 62
    7
 10
12.378654
 20
37.205984
 11
12.196081
 21
37.156842
  0
LINE
  8
_0-5_1-2
  6
CONTINUOUS
 62
    7
 10
10.076783
 20
35.471678
 11
10.076783
 21
37.206998
  0
LINE
  8
_0-5_1-2
  6
CONTINUOUS
 62
    7
 10
10.076783
 20
37.206998
 11
10.426787
 21
37.206998
  0
LINE
  8
_0-5_1-2
  6
CONTINUOUS
 62
    7
 10
10.426787
 20
35.471678
 11
10.426787
 21
37.206998
  0
LINE
  8
_0-5_1-2
  6
CONTINUOUS
 62
    7
 10
6.648851
 20
35.449705
 11
7.106516
 21
37.149642
  0
LINE
  8
_0-5_1-2
  6
CONTINUOUS
 62
    7
 10
6.45179
 20
35.448641
 11
6.92492
 21
37.205984
  0
LINE
  8
_0-5_1-2
  6
CONTINUOUS
 62
    7
 10
6.92492
 20
37.205984
 11
7.107506
 21
37.156842
  0
LINE
  8
_0-5_1-2
  6
CONTINUOUS
 62
    7
 10
9.226778
 20
35.471678
 11
9.226778
 21
37.206998
  0
LINE
  8
_0-5_1-2
  6
CONTINUOUS
 62
    7
 10
9.226778
 20
37.206998
 11
8.876787
 21
37.206998
  0
LINE
  8
_0-5_1-2
  6
CONTINUOUS
 62
    7
 10
8.876787
 20
35.471678
 11
8.876787
 21
37.206998
  0
LINE
  8
_0-5_1-2
  6
CENTER1
 62
    4
 10
9.651781
 20
34.526928
 11
9.651781
 21
51.047198
  0
LINE
  8
_0-5_1-2
  6
CONTINUOUS
 62
    7
 10
11.701795
 20
35.440847
 11
11.701795
 21
50.209948
  0
LINE
  8
_0-5_1-2
  6
CONTINUOUS
 62
    7
 10
7.601791
 20
35.440847
 11
7.601791
 21
50.209948
  0
LINE
  8
_0-5_1-2
  6
CONTINUOUS
 62
    7
 10
8.063836
 20
50.243439
 11
8.063836
 21
35.451883
  0
LINE
  8
_0-5_1-2
  6
CONTINUOUS
 62
    7
 10
11.239738
 20
50.243439
 11
11.239738
 21
35.451883
  0
LINE
  8
_0-5_1-2
  6
CONTINUOUS
 62
    7
 10
6.461787
 20
60.455991
 11
7.103621
 21
60.455991
  0
LINE
  8
_0-5_1-2
  6
CONTINUOUS
 62
    7
 10
6.461787
 20
60.455991
 11
6.461787
 21
59.057988
  0
LINE
  8
_0-5_1-2
  6
CONTINUOUS
 62
    7
 10
6.461787
 20
59.057988
 11
7.089678
 21
59.057988
  0
LINE
  8
_0-5_1-2
  6
CONTINUOUS
 62
    7
 10
7.111786
 20
64.462661
 11
7.111786
 21
60.458441
  0
LINE
  8
_0-5_1-2
  6
DASHED1
 62
    7
 10
6.461787
 20
60.336001
 11
7.103621
 21
60.336001
  0
LINE
  8
_0-5_1-2
  6
DASHED1
 62
    7
 10
6.461787
 20
59.177996
 11
7.089678
 21
59.177996
  0
LINE
  8
_0-5_1-2
  6
CONTINUOUS
 62
    7
 10
6.461787
 20
50.655996
 11
7.103621
 21
50.655996
  0
LINE
  8
_0-5_1-2
  6
CONTINUOUS
 62
    7
 10
6.461787
 20
50.655996
 11
6.461787
 21
49.257985
  0
LINE
  8
_0-5_1-2
  6
CONTINUOUS
 62
    7
 10
6.461787
 20
49.257985
 11
7.089678
 21
49.257985
  0
LINE
  8
_0-5_1-2
  6
DASHED1
 62
    7
 10
6.461787
 20
50.536
 11
7.103621
 21
50.536
  0
LINE
  8
_0-5_1-2
  6
DASHED1
 62
    7
 10
6.461787
 20
49.377994
 11
7.089678
 21
49.377994
  0
LINE
  8
_0-5_1-2
  6
CONTINUOUS
 62
    7
 10
6.611785
 20
59.068121
 11
6.611785
 21
50.664755
  0
LINE
  8
_0-5_1-2
  6
CONTINUOUS
 62
    7
 10
7.111786
 20
59.068121
 11
7.111786
 21
50.666401
  0
LINE
  8
_0-5_1-2
  6
CONTINUOUS
 62
    7
 10
6.461787
 20
39.457983
 11
7.103621
 21
39.457983
  0
LINE
  8
_0-5_1-2
  6
CONTINUOUS
 62
    7
 10
6.461787
 20
39.457983
 11
6.461787
 21
40.855993
  0
LINE
  8
_0-5_1-2
  6
CONTINUOUS
 62
    7
 10
6.461787
 20
40.855993
 11
7.089678
 21
40.855993
  0
LINE
  8
_0-5_1-2
  6
DASHED1
 62
    7
 10
6.461787
 20
39.577991
 11
7.103621
 21
39.577991
  0
LINE
  8
_0-5_1-2
  6
DASHED1
 62
    7
 10
6.461787
 20
40.735985
 11
7.089678
 21
40.735985
  0
LINE
  8
_0-5_1-2
  6
CONTINUOUS
 62
    7
 10
6.461787
 20
49.257985
 11
7.103621
 21
49.257985
  0
LINE
  8
_0-5_1-2
  6
CONTINUOUS
 62
    7
 10
6.461787
 20
49.257985
 11
6.461787
 21
50.655996
  0
LINE
  8
_0-5_1-2
  6
CONTINUOUS
 62
    7
 10
6.461787
 20
50.655996
 11
7.089678
 21
50.655996
  0
LINE
  8
_0-5_1-2
  6
DASHED1
 62
    7
 10
6.461787
 20
49.377994
 11
7.103621
 21
49.377994
  0
LINE
  8
_0-5_1-2
  6
DASHED1
 62
    7
 10
6.461787
 20
50.535987
 11
7.089678
 21
50.535987
  0
LINE
  8
_0-5_1-2
  6
CONTINUOUS
 62
    7
 10
6.611785
 20
40.845873
 11
6.611785
 21
49.249226
  0
LINE
  8
_0-5_1-2
  6
CONTINUOUS
 62
    7
 10
7.111786
 20
35.449953
 11
7.111786
 21
39.450213
  0
LINE
  8
_0-5_1-2
  6
CONTINUOUS
 62
    7
 10
7.111786
 20
40.852356
 11
7.111786
 21
49.247593
  0
LINE
  8
_0-5_1-2
  6
CONTINUOUS
 62
    7
 10
4.572658
 20
35.263754
 11
4.232663
 21
35.263754
  0
LINE
  8
_0-5_1-2
  6
CONTINUOUS
 62
    7
 10
4.572658
 20
35.263754
 11
4.232663
 21
35.263754
  0
LINE
  8
_0-5_1-2
  6
CONTINUOUS
 62
    7
 10
6.462294
 20
59.178194
 11
4.595212
 21
59.178194
  0
LINE
  8
_0-5_1-2
  6
CONTINUOUS
 62
    7
 10
6.462294
 20
59.778191
 11
6.462294
 21
59.178194
  0
LINE
  8
_0-5_1-2
  6
CONTINUOUS
 62
    7
 10
6.462294
 20
59.778191
 11
4.595212
 21
59.778191
  0
LINE
  8
_0-5_1-2
  6
CONTINUOUS
 62
    7
 10
4.232663
 20
64.663741
 11
4.232663
 21
35.263754
  0
LINE
  8
_0-5_1-2
  6
CONTINUOUS
 62
    7
 10
4.572658
 20
64.663741
 11
4.232663
 21
64.663741
  0
LINE
  8
_0-5_1-2
  6
CONTINUOUS
 62
    7
 10
4.572658
 20
64.663741
 11
4.572658
 21
35.263754
  0
LINE
  8
_0-5_1-2
  6
CONTINUOUS
 62
    7
 10
6.462294
 20
39.578189
 11
4.595212
 21
39.578189
  0
LINE
  8
_0-5_1-2
  6
CONTINUOUS
 62
    7
 10
6.462294
 20
40.178206
 11
6.462294
 21
39.578189
  0
LINE
  8
_0-5_1-2
  6
CONTINUOUS
 62
    7
 10
6.462294
 20
40.178206
 11
4.595212
 21
40.178206
  0
LINE
  8
_0-5_1-2
  6
CONTINUOUS
 62
    7
 10
6.45179
 20
64.656991
 11
6.45179
 21
64.846991
  0
LINE
  8
_0-5_1-2
  6
CONTINUOUS
 62
    7
 10
6.45179
 20
64.846991
 11
12.851784
 21
64.846991
  0
LINE
  8
_0-5_1-2
  6
CONTINUOUS
 62
    7
 10
6.45179
 20
64.656991
 11
12.851784
 21
64.656991
  0
LINE
  8
_0-5_1-2
  6
CONTINUOUS
 62
    7
 10
12.191788
 20
64.852261
 11
12.191788
 21
79.548251
  0
LINE
  8
_0-5_1-2
  6
CONTINUOUS
 62
    7
 10
12.654735
 20
64.849721
 11
12.197058
 21
66.549631
  0
LINE
  8
_0-5_1-2
  6
CONTINUOUS
 62
    7
 10
12.851784
 20
64.656991
 11
12.851784
 21
64.848631
  0
LINE
  8
_0-5_1-2
  6
CONTINUOUS
 62
    7
 10
12.851784
 20
64.848631
 11
12.378654
 21
66.605991
  0
LINE
  8
_0-5_1-2
  6
CONTINUOUS
 62
    7
 10
12.378654
 20
66.605991
 11
12.196081
 21
66.556831
  0
LINE
  8
_0-5_1-2
  6
CONTINUOUS
 62
    7
 10
10.076783
 20
64.871671
 11
10.076783
 21
66.606991
  0
LINE
  8
_0-5_1-2
  6
CONTINUOUS
 62
    7
 10
10.076783
 20
66.606991
 11
10.426787
 21
66.606991
  0
LINE
  8
_0-5_1-2
  6
CONTINUOUS
 62
    7
 10
10.426787
 20
64.871671
 11
10.426787
 21
66.606991
  0
LINE
  8
_0-5_1-2
  6
CONTINUOUS
 62
    7
 10
6.648851
 20
64.849721
 11
7.106516
 21
66.549631
  0
LINE
  8
_0-5_1-2
  6
CONTINUOUS
 62
    7
 10
6.45179
 20
64.848631
 11
6.92492
 21
66.605991
  0
LINE
  8
_0-5_1-2
  6
CONTINUOUS
 62
    7
 10
6.92492
 20
66.605991
 11
7.107506
 21
66.556831
  0
LINE
  8
_0-5_1-2
  6
CONTINUOUS
 62
    7
 10
9.226778
 20
64.871671
 11
9.226778
 21
66.606991
  0
LINE
  8
_0-5_1-2
  6
CONTINUOUS
 62
    7
 10
9.226778
 20
66.606991
 11
8.876787
 21
66.606991
  0
LINE
  8
_0-5_1-2
  6
CONTINUOUS
 62
    7
 10
8.876787
 20
64.871671
 11
8.876787
 21
66.606991
  0
LINE
  8
_0-5_1-2
  6
CONTINUOUS
 62
    7
 10
11.701795
 20
64.840841
 11
11.701795
 21
79.609941
  0
LINE
  8
_0-5_1-2
  6
CONTINUOUS
 62
    7
 10
7.601791
 20
64.840841
 11
7.601791
 21
79.609941
  0
LINE
  8
_0-5_1-2
  6
CONTINUOUS
 62
    7
 10
8.063836
 20
79.643441
 11
8.063836
 21
64.851871
  0
LINE
  8
_0-5_1-2
  6
CONTINUOUS
 62
    7
 10
11.239738
 20
79.643441
 11
11.239738
 21
64.851871
  0
LINE
  8
_0-5_1-2
  6
CONTINUOUS
 62
    7
 10
6.461787
 20
80.055991
 11
7.103621
 21
80.055991
  0
LINE
  8
_0-5_1-2
  6
CONTINUOUS
 62
    7
 10
6.461787
 20
80.055991
 11
6.461787
 21
78.657991
  0
LINE
  8
_0-5_1-2
  6
CONTINUOUS
 62
    7
 10
6.461787
 20
78.657991
 11
7.089678
 21
78.657991
  0
LINE
  8
_0-5_1-2
  6
DASHED1
 62
    7
 10
6.461787
 20
79.935991
 11
7.103621
 21
79.935991
  0
LINE
  8
_0-5_1-2
  6
DASHED1
 62
    7
 10
6.461787
 20
78.778001
 11
7.089678
 21
78.778001
  0
LINE
  8
_0-5_1-2
  6
CONTINUOUS
 62
    7
 10
6.461787
 20
68.857971
 11
7.103621
 21
68.857971
  0
LINE
  8
_0-5_1-2
  6
CONTINUOUS
 62
    7
 10
6.461787
 20
68.857971
 11
6.461787
 21
70.255981
  0
LINE
  8
_0-5_1-2
  6
CONTINUOUS
 62
    7
 10
6.461787
 20
70.255981
 11
7.089678
 21
70.255981
  0
LINE
  8
_0-5_1-2
  6
DASHED1
 62
    7
 10
6.461787
 20
68.977981
 11
7.103621
 21
68.977981
  0
LINE
  8
_0-5_1-2
  6
DASHED1
 62
    7
 10
6.461787
 20
70.135991
 11
7.089678
 21
70.135991
  0
LINE
  8
_0-5_1-2
  6
CONTINUOUS
 62
    7
 10
6.461787
 20
78.657991
 11
7.103621
 21
78.657991
  0
LINE
  8
_0-5_1-2
  6
CONTINUOUS
 62
    7
 10
6.461787
 20
78.657991
 11
6.461787
 21
80.055991
  0
LINE
  8
_0-5_1-2
  6
CONTINUOUS
 62
    7
 10
6.461787
 20
80.055991
 11
7.089678
 21
80.055991
  0
LINE
  8
_0-5_1-2
  6
DASHED1
 62
    7
 10
6.461787
 20
78.777981
 11
7.103621
 21
78.777981
  0
LINE
  8
_0-5_1-2
  6
DASHED1
 62
    7
 10
6.461787
 20
79.935961
 11
7.089678
 21
79.935961
  0
LINE
  8
_0-5_1-2
  6
CONTINUOUS
 62
    7
 10
6.611785
 20
70.245861
 11
6.611785
 21
78.649231
  0
LINE
  8
_0-5_1-2
  6
CONTINUOUS
 62
    7
 10
7.111786
 20
64.849941
 11
7.111786
 21
68.850201
  0
LINE
  8
_0-5_1-2
  6
CONTINUOUS
 62
    7
 10
7.111786
 20
70.252351
 11
7.111786
 21
78.647581
  0
LINE
  8
_0-5_1-2
  6
CONTINUOUS
 62
    7
 10
4.572658
 20
64.663761
 11
4.232663
 21
64.663761
  0
LINE
  8
_0-5_1-2
  6
CONTINUOUS
 62
    7
 10
4.572658
 20
64.663761
 11
4.232663
 21
64.663761
  0
LINE
  8
_0-5_1-2
  6
CONTINUOUS
 62
    7
 10
6.462294
 20
68.978191
 11
4.595212
 21
68.978191
  0
LINE
  8
_0-5_1-2
  6
CONTINUOUS
 62
    7
 10
6.462294
 20
69.578201
 11
6.462294
 21
68.978191
  0
LINE
  8
_0-5_1-2
  6
CONTINUOUS
 62
    7
 10
6.462294
 20
69.578201
 11
4.595212
 21
69.578201
  0
LINE
  8
_0-5_1-2
  6
CONTINUOUS
 62
    7
 10
6.45179
 20
64.657001
 11
12.833486
 21
64.657001
  0
LINE
  8
_0-5_1-2
  6
CONTINUOUS
 62
    7
 10
6.446384
 20
64.656871
 11
12.850807
 21
64.656871
  0
LINE
  8
_0-5_1-2
  6
CONTINUOUS
 62
    7
 10
6.45179
 20
94.056981
 11
6.45179
 21
93.867001
  0
LINE
  8
_0-5_1-2
  6
CONTINUOUS
 62
    7
 10
6.45179
 20
93.867001
 11
12.851784
 21
93.867001
  0
LINE
  8
_0-5_1-2
  6
CONTINUOUS
 62
    7
 10
12.851784
 20
94.056981
 11
12.851784
 21
93.865351
  0
LINE
  8
_0-5_1-2
  6
CONTINUOUS
 62
    7
 10
10.076783
 20
92.107001
 11
10.426787
 21
92.107001
  0
LINE
  8
_0-5_1-2
  6
CONTINUOUS
 62
    7
 10
9.226778
 20
92.107001
 11
8.876787
 21
92.107001
  0
LINE
  8
_0-5_1-2
  6
CONTINUOUS
 62
    7
 10
6.45179
 20
64.656991
 11
6.45179
 21
64.846991
  0
LINE
  8
_0-5_1-2
  6
CONTINUOUS
 62
    7
 10
6.45179
 20
64.846991
 11
12.851784
 21
64.846991
  0
LINE
  8
_0-5_1-2
  6
CONTINUOUS
 62
    7
 10
6.45179
 20
64.656991
 11
12.851784
 21
64.656991
  0
LINE
  8
_0-5_1-2
  6
CONTINUOUS
 62
    7
 10
12.191788
 20
64.852261
 11
12.191788
 21
79.548251
  0
LINE
  8
_0-5_1-2
  6
CONTINUOUS
 62
    7
 10
12.654735
 20
64.849721
 11
12.197058
 21
66.549631
  0
LINE
  8
_0-5_1-2
  6
CONTINUOUS
 62
    7
 10
12.851784
 20
64.656991
 11
12.851784
 21
64.848631
  0
LINE
  8
_0-5_1-2
  6
CONTINUOUS
 62
    7
 10
12.851784
 20
64.848631
 11
12.378654
 21
66.605991
  0
LINE
  8
_0-5_1-2
  6
CONTINUOUS
 62
    7
 10
12.378654
 20
66.605991
 11
12.196081
 21
66.556831
  0
LINE
  8
_0-5_1-2
  6
CONTINUOUS
 62
    7
 10
10.076783
 20
64.871671
 11
10.076783
 21
66.606991
  0
LINE
  8
_0-5_1-2
  6
CONTINUOUS
 62
    7
 10
10.076783
 20
66.606991
 11
10.426787
 21
66.606991
  0
LINE
  8
_0-5_1-2
  6
CONTINUOUS
 62
    7
 10
10.426787
 20
64.871671
 11
10.426787
 21
66.606991
  0
LINE
  8
_0-5_1-2
  6
CONTINUOUS
 62
    7
 10
6.648851
 20
64.849721
 11
7.106516
 21
66.549631
  0
LINE
  8
_0-5_1-2
  6
CONTINUOUS
 62
    7
 10
6.45179
 20
64.848631
 11
6.92492
 21
66.605991
  0
LINE
  8
_0-5_1-2
  6
CONTINUOUS
 62
    7
 10
6.92492
 20
66.605991
 11
7.107506
 21
66.556831
  0
LINE
  8
_0-5_1-2
  6
CONTINUOUS
 62
    7
 10
9.226778
 20
64.871671
 11
9.226778
 21
66.606991
  0
LINE
  8
_0-5_1-2
  6
CONTINUOUS
 62
    7
 10
9.226778
 20
66.606991
 11
8.876787
 21
66.606991
  0
LINE
  8
_0-5_1-2
  6
CONTINUOUS
 62
    7
 10
8.876787
 20
64.871671
 11
8.876787
 21
66.606991
  0
LINE
  8
_0-5_1-2
  6
CONTINUOUS
 62
    7
 10
11.701795
 20
64.840841
 11
11.701795
 21
79.609941
  0
LINE
  8
_0-5_1-2
  6
CONTINUOUS
 62
    7
 10
7.601791
 20
64.840841
 11
7.601791
 21
79.609941
  0
LINE
  8
_0-5_1-2
  6
CONTINUOUS
 62
    7
 10
8.063836
 20
79.643441
 11
8.063836
 21
64.851871
  0
LINE
  8
_0-5_1-2
  6
CONTINUOUS
 62
    7
 10
11.239738
 20
79.643441
 11
11.239738
 21
64.851871
  0
LINE
  8
_0-5_1-2
  6
CONTINUOUS
 62
    7
 10
6.461787
 20
89.856001
 11
7.103621
 21
89.856001
  0
LINE
  8
_0-5_1-2
  6
CONTINUOUS
 62
    7
 10
6.461787
 20
89.856001
 11
6.461787
 21
88.458001
  0
LINE
  8
_0-5_1-2
  6
CONTINUOUS
 62
    7
 10
6.461787
 20
88.458001
 11
7.089678
 21
88.458001
  0
LINE
  8
_0-5_1-2
  6
DASHED1
 62
    7
 10
6.461787
 20
89.735991
 11
7.103621
 21
89.735991
  0
LINE
  8
_0-5_1-2
  6
DASHED1
 62
    7
 10
6.461787
 20
88.577971
 11
7.089678
 21
88.577971
  0
LINE
  8
_0-5_1-2
  6
CONTINUOUS
 62
    7
 10
6.461787
 20
80.055991
 11
7.103621
 21
80.055991
  0
LINE
  8
_0-5_1-2
  6
CONTINUOUS
 62
    7
 10
6.461787
 20
80.055991
 11
6.461787
 21
78.657991
  0
LINE
  8
_0-5_1-2
  6
CONTINUOUS
 62
    7
 10
6.461787
 20
78.657991
 11
7.089678
 21
78.657991
  0
LINE
  8
_0-5_1-2
  6
DASHED1
 62
    7
 10
6.461787
 20
79.935991
 11
7.103621
 21
79.935991
  0
LINE
  8
_0-5_1-2
  6
DASHED1
 62
    7
 10
6.461787
 20
78.778001
 11
7.089678
 21
78.778001
  0
LINE
  8
_0-5_1-2
  6
CONTINUOUS
 62
    7
 10
6.461787
 20
68.857971
 11
7.103621
 21
68.857971
  0
LINE
  8
_0-5_1-2
  6
CONTINUOUS
 62
    7
 10
6.461787
 20
68.857971
 11
6.461787
 21
70.255981
  0
LINE
  8
_0-5_1-2
  6
CONTINUOUS
 62
    7
 10
6.461787
 20
70.255981
 11
7.089678
 21
70.255981
  0
LINE
  8
_0-5_1-2
  6
DASHED1
 62
    7
 10
6.461787
 20
68.977981
 11
7.103621
 21
68.977981
  0
LINE
  8
_0-5_1-2
  6
DASHED1
 62
    7
 10
6.461787
 20
70.135991
 11
7.089678
 21
70.135991
  0
LINE
  8
_0-5_1-2
  6
CONTINUOUS
 62
    7
 10
6.461787
 20
78.657991
 11
7.103621
 21
78.657991
  0
LINE
  8
_0-5_1-2
  6
CONTINUOUS
 62
    7
 10
6.461787
 20
78.657991
 11
6.461787
 21
80.055991
  0
LINE
  8
_0-5_1-2
  6
CONTINUOUS
 62
    7
 10
6.461787
 20
80.055991
 11
7.089678
 21
80.055991
  0
LINE
  8
_0-5_1-2
  6
DASHED1
 62
    7
 10
6.461787
 20
78.777981
 11
7.103621
 21
78.777981
  0
LINE
  8
_0-5_1-2
  6
DASHED1
 62
    7
 10
6.461787
 20
79.935961
 11
7.089678
 21
79.935961
  0
LINE
  8
_0-5_1-2
  6
CONTINUOUS
 62
    7
 10
6.611785
 20
70.245861
 11
6.611785
 21
78.649231
  0
LINE
  8
_0-5_1-2
  6
CONTINUOUS
 62
    7
 10
7.111786
 20
64.849941
 11
7.111786
 21
68.850201
  0
LINE
  8
_0-5_1-2
  6
CONTINUOUS
 62
    7
 10
7.111786
 20
70.252351
 11
7.111786
 21
78.647581
  0
LINE
  8
_0-5_1-2
  6
CENTER1
 62
    4
 10
5.965682
 20
89.156981
 11
8.213042
 21
89.156981
  0
LINE
  8
_0-5_1-2
  6
CONTINUOUS
 62
    7
 10
4.572658
 20
64.663761
 11
4.232663
 21
64.663761
  0
LINE
  8
_0-5_1-2
  6
CONTINUOUS
 62
    7
 10
4.572658
 20
64.663761
 11
4.232663
 21
64.663761
  0
LINE
  8
_0-5_1-2
  6
CONTINUOUS
 62
    7
 10
6.462294
 20
78.778171
 11
4.595212
 21
78.778171
  0
LINE
  8
_0-5_1-2
  6
CONTINUOUS
 62
    7
 10
6.462294
 20
79.378171
 11
6.462294
 21
78.778171
  0
LINE
  8
_0-5_1-2
  6
CONTINUOUS
 62
    7
 10
6.462294
 20
79.378171
 11
4.595212
 21
79.378171
  0
LINE
  8
_0-5_1-2
  6
CONTINUOUS
 62
    7
 10
6.462294
 20
68.978191
 11
4.595212
 21
68.978191
  0
LINE
  8
_0-5_1-2
  6
CONTINUOUS
 62
    7
 10
6.462294
 20
69.578201
 11
6.462294
 21
68.978191
  0
LINE
  8
_0-5_1-2
  6
CONTINUOUS
 62
    7
 10
6.462294
 20
69.578201
 11
4.595212
 21
69.578201
  0
LINE
  8
_0-5_1-2
  6
CONTINUOUS
 62
    7
 10
6.45179
 20
94.056981
 11
6.45179
 21
94.246971
  0
LINE
  8
_0-5_1-2
  6
CONTINUOUS
 62
    7
 10
6.45179
 20
94.246971
 11
12.851784
 21
94.246971
  0
LINE
  8
_0-5_1-2
  6
CONTINUOUS
 62
    7
 10
6.45179
 20
94.056981
 11
12.851784
 21
94.056981
  0
LINE
  8
_0-5_1-2
  6
CONTINUOUS
 62
    7
 10
12.654735
 20
94.249721
 11
12.197058
 21
95.949631
  0
LINE
  8
_0-5_1-2
  6
CONTINUOUS
 62
    7
 10
12.851784
 20
94.056981
 11
12.851784
 21
94.248631
  0
LINE
  8
_0-5_1-2
  6
CONTINUOUS
 62
    7
 10
12.851784
 20
94.248631
 11
12.378654
 21
96.005981
  0
LINE
  8
_0-5_1-2
  6
CONTINUOUS
 62
    7
 10
12.378654
 20
96.005981
 11
12.196081
 21
95.956841
  0
LINE
  8
_0-5_1-2
  6
CONTINUOUS
 62
    7
 10
10.076783
 20
94.271681
 11
10.076783
 21
96.006981
  0
LINE
  8
_0-5_1-2
  6
CONTINUOUS
 62
    7
 10
10.076783
 20
96.006981
 11
10.426787
 21
96.006981
  0
LINE
  8
_0-5_1-2
  6
CONTINUOUS
 62
    7
 10
10.426787
 20
94.271681
 11
10.426787
 21
96.006981
  0
LINE
  8
_0-5_1-2
  6
CONTINUOUS
 62
    7
 10
6.648851
 20
94.249721
 11
7.106516
 21
95.949631
  0
LINE
  8
_0-5_1-2
  6
CONTINUOUS
 62
    7
 10
6.45179
 20
94.248631
 11
6.92492
 21
96.005981
  0
LINE
  8
_0-5_1-2
  6
CONTINUOUS
 62
    7
 10
6.92492
 20
96.005981
 11
7.107506
 21
95.956841
  0
LINE
  8
_0-5_1-2
  6
CONTINUOUS
 62
    7
 10
9.226778
 20
94.271681
 11
9.226778
 21
96.006981
  0
LINE
  8
_0-5_1-2
  6
CONTINUOUS
 62
    7
 10
9.226778
 20
96.006981
 11
8.876787
 21
96.006981
  0
LINE
  8
_0-5_1-2
  6
CONTINUOUS
 62
    7
 10
8.876787
 20
94.271681
 11
8.876787
 21
96.006981
  0
LINE
  8
_0-5_1-2
  6
CONTINUOUS
 62
    7
 10
4.572658
 20
84.263751
 11
4.232663
 21
84.263751
  0
LINE
  8
_0-5_1-2
  6
CONTINUOUS
 62
    7
 10
6.45179
 20
94.056981
 11
12.833486
 21
94.056981
  0
LINE
  8
_0-5_1-2
  6
CONTINUOUS
 62
    7
 10
6.446384
 20
94.056871
 11
12.850807
 21
94.056871
  0
LINE
  8
_0-5_1-2
  6
CONTINUOUS
 62
    7
 10
6.45179
 20
94.056981
 11
6.45179
 21
94.246971
  0
LINE
  8
_0-5_1-2
  6
CONTINUOUS
 62
    7
 10
6.45179
 20
94.246971
 11
12.851784
 21
94.246971
  0
LINE
  8
_0-5_1-2
  6
CONTINUOUS
 62
    7
 10
6.45179
 20
94.056981
 11
12.851784
 21
94.056981
  0
LINE
  8
_0-5_1-2
  6
CONTINUOUS
 62
    7
 10
12.654735
 20
94.249721
 11
12.197058
 21
95.949631
  0
LINE
  8
_0-5_1-2
  6
CONTINUOUS
 62
    7
 10
12.851784
 20
94.056981
 11
12.851784
 21
94.248631
  0
LINE
  8
_0-5_1-2
  6
CONTINUOUS
 62
    7
 10
12.851784
 20
94.248631
 11
12.378654
 21
96.005991
  0
LINE
  8
_0-5_1-2
  6
CONTINUOUS
 62
    7
 10
12.378654
 20
96.005991
 11
12.196081
 21
95.956841
  0
LINE
  8
_0-5_1-2
  6
CONTINUOUS
 62
    7
 10
10.076783
 20
94.271681
 11
10.076783
 21
96.006981
  0
LINE
  8
_0-5_1-2
  6
CONTINUOUS
 62
    7
 10
10.076783
 20
96.006981
 11
10.426787
 21
96.006981
  0
LINE
  8
_0-5_1-2
  6
CONTINUOUS
 62
    7
 10
10.426787
 20
94.271681
 11
10.426787
 21
96.006981
  0
LINE
  8
_0-5_1-2
  6
CONTINUOUS
 62
    7
 10
6.648851
 20
94.249721
 11
7.106516
 21
95.949631
  0
LINE
  8
_0-5_1-2
  6
CONTINUOUS
 62
    7
 10
6.45179
 20
94.248631
 11
6.92492
 21
96.005991
  0
LINE
  8
_0-5_1-2
  6
CONTINUOUS
 62
    7
 10
6.92492
 20
96.005991
 11
7.107506
 21
95.956841
  0
LINE
  8
_0-5_1-2
  6
CONTINUOUS
 62
    7
 10
9.226778
 20
94.271681
 11
9.226778
 21
96.006981
  0
LINE
  8
_0-5_1-2
  6
CONTINUOUS
 62
    7
 10
9.226778
 20
96.006981
 11
8.876787
 21
96.006981
  0
LINE
  8
_0-5_1-2
  6
CONTINUOUS
 62
    7
 10
8.876787
 20
94.271681
 11
8.876787
 21
96.006981
  0
LINE
  8
_0-5_1-2
  6
CONTINUOUS
 62
    7
 10
4.572658
 20
84.263751
 11
4.232663
 21
84.263751
  0
LINE
  8
_0-5_1-2
  6
CONTINUOUS
 62
    7
 10
4.572658
 20
84.263751
 11
4.232663
 21
84.263751
  0
LINE
  8
_0-5_1-2
  6
CONTINUOUS
 62
    7
 10
4.572658
 20
84.263751
 11
4.232663
 21
84.263751
  0
LINE
  8
_0-5_1-2
  6
CONTINUOUS
 62
    7
 10
4.572658
 20
84.263751
 11
4.572658
 21
64.663761
  0
LINE
  8
_0-5_1-2
  6
CONTINUOUS
 62
    7
 10
6.446384
 20
123.45687
 11
12.850807
 21
123.45687
  0
LINE
  8
_0-5_1-2
  6
CONTINUOUS
 62
    7
 10
4.572658
 20
84.263751
 11
4.572658
 21
64.663761
  0
LINE
  8
_0-5_1-2
  6
CONTINUOUS
 62
    7
 10
4.232663
 20
84.263751
 11
4.232663
 21
64.663761
  0
LINE
  8
_0-5_1-2
  6
CONTINUOUS
 62
    7
 10
4.232663
 20
84.263751
 11
4.232663
 21
64.663761
  0
LINE
  8
_0-5_1-2
  6
CONTINUOUS
 62
    7
 10
4.572658
 20
84.263751
 11
4.232663
 21
84.263751
  0
LINE
  8
_0-5_1-2
  6
CONTINUOUS
 62
    7
 10
6.156792
 20
126.14696
 11
13.156791
 21
126.14696
  0
LINE
  8
_0-5_1-2
  6
CONTINUOUS
 62
    7
 10
4.856793
 20
125.18694
 11
14.45679
 21
125.18694
  0
LINE
  8
_0-5_1-2
  6
CONTINUOUS
 62
    7
 10
14.45679
 20
126.01695
 11
14.45679
 21
125.18694
  0
LINE
  8
_0-5_1-2
  6
CENTER1
 62
    2
 10
8.981367
 20
123.75696
 11
10.343449
 21
123.75696
  0
LINE
  8
_0-5_1-2
  6
CONTINUOUS
 62
    7
 10
8.981367
 20
123.45697
 11
10.343449
 21
123.45697
  0
LINE
  8
_0-5_1-2
  6
CONTINUOUS
 62
    7
 10
4.856793
 20
126.01695
 11
14.45679
 21
126.01695
  0
LINE
  8
_0-5_1-2
  6
CONTINUOUS
 62
    7
 10
4.856793
 20
126.01695
 11
4.856793
 21
125.18694
  0
LINE
  8
_0-5_1-2
  6
CONTINUOUS
 62
    7
 10
5.051776
 20
118.88198
 11
5.152978
 21
118.88198
  0
LINE
  8
_0-5_1-2
  6
CONTINUOUS
 62
    7
 10
5.051776
 20
118.23198
 11
5.051776
 21
118.88198
  0
LINE
  8
_0-5_1-2
  6
CONTINUOUS
 62
    7
 10
5.051776
 20
118.23198
 11
5.152978
 21
118.23198
  0
LINE
  8
_0-5_1-2
  6
CONTINUOUS
 62
    7
 10
5.151791
 20
119.05698
 11
6.136403
 21
119.05698
  0
LINE
  8
_0-5_1-2
  6
CONTINUOUS
 62
    7
 10
5.173269
 20
118.05696
 11
6.136403
 21
118.05696
  0
LINE
  8
_0-5_1-2
  6
CONTINUOUS
 62
    7
 10
4.051772
 20
118.78196
 11
5.040369
 21
118.78196
  0
LINE
  8
_0-5_1-2
  6
CONTINUOUS
 62
    7
 10
4.051772
 20
118.33197
 11
4.051772
 21
118.78196
  0
LINE
  8
_0-5_1-2
  6
CONTINUOUS
 62
    7
 10
4.051772
 20
118.33197
 11
5.040369
 21
118.33197
  0
LINE
  8
_0-5_1-2
  6
CONTINUOUS
 62
    7
 10
2.65177
 20
118.73199
 11
4.043644
 21
118.73199
  0
LINE
  8
_0-5_1-2
  6
CONTINUOUS
 62
    7
 10
2.65177
 20
118.38195
 11
4.043644
 21
118.38195
  0
LINE
  8
_0-5_1-2
  6
CONTINUOUS
 62
    7
 10
2.561776
 20
118.85696
 11
2.65177
 21
118.85696
  0
LINE
  8
_0-5_1-2
  6
CONTINUOUS
 62
    7
 10
2.561776
 20
118.25698
 11
2.561776
 21
118.85696
  0
LINE
  8
_0-5_1-2
  6
CONTINUOUS
 62
    7
 10
2.65177
 20
118.25698
 11
2.65177
 21
118.85696
  0
LINE
  8
_0-5_1-2
  6
CONTINUOUS
 62
    7
 10
2.561776
 20
118.25698
 11
2.65177
 21
118.25698
  0
LINE
  8
_0-5_1-2
  6
CONTINUOUS
 62
    7
 10
2.55178
 20
98.631951
 11
2.55178
 21
99.281951
  0
LINE
  8
_0-5_1-2
  6
CONTINUOUS
 62
    7
 10
1.551776
 20
99.181961
 11
2.540385
 21
99.181961
  0
LINE
  8
_0-5_1-2
  6
CONTINUOUS
 62
    7
 10
1.551776
 20
98.731961
 11
1.551776
 21
99.181961
  0
LINE
  8
_0-5_1-2
  6
CONTINUOUS
 62
    7
 10
1.551776
 20
98.731961
 11
2.540385
 21
98.731961
  0
LINE
  8
_0-5_1-2
  6
CONTINUOUS
 62
    7
 10
0.151774
 20
99.131971
 11
1.543648
 21
99.131971
  0
LINE
  8
_0-5_1-2
  6
CONTINUOUS
 62
    7
 10
0.151774
 20
98.781961
 11
1.543648
 21
98.781961
  0
LINE
  8
_0-5_1-2
  6
CONTINUOUS
 62
    7
 10
0.06178
 20
99.256961
 11
0.151774
 21
99.256961
  0
LINE
  8
_0-5_1-2
  6
CONTINUOUS
 62
    7
 10
0.06178
 20
98.656961
 11
0.06178
 21
99.256961
  0
LINE
  8
_0-5_1-2
  6
CONTINUOUS
 62
    7
 10
0.151774
 20
98.656961
 11
0.151774
 21
99.256961
  0
LINE
  8
_0-5_1-2
  6
CONTINUOUS
 62
    7
 10
0.06178
 20
98.656961
 11
0.151774
 21
98.656961
  0
LINE
  8
_0-5_1-2
  6
CONTINUOUS
 62
    7
 10
13.151792
 20
126.13696
 11
13.151792
 21
99.648281
  0
LINE
  8
_0-5_1-2
  6
CONTINUOUS
 62
    7
 10
2.55178
 20
99.281951
 11
5.203233
 21
99.281951
  0
LINE
  8
_0-5_1-2
  6
CONTINUOUS
 62
    7
 10
2.55178
 20
98.631951
 11
5.175298
 21
98.631951
  0
LINE
  8
_0-5_1-2
  6
CONTINUOUS
 62
    7
 10
4.171014
 20
119.93196
 11
6.131702
 21
119.93196
  0
LINE
  8
_0-5_1-2
  6
CONTINUOUS
 62
    7
 10
4.171014
 20
119.18197
 11
6.131702
 21
119.18197
  0
LINE
  8
_0-5_1-2
  6
CONTINUOUS
 62
    7
 10
5.847715
 20
120.88197
 11
6.131702
 21
120.88197
  0
LINE
  8
_0-5_1-2
  6
CONTINUOUS
 62
    7
 10
5.175867
 20
120.13197
 11
6.131702
 21
120.13197
  0
LINE
  8
_0-5_1-2
  6
CONTINUOUS
 62
    7
 10
5.199027
 20
120.16122
 11
5.847715
 21
120.88197
  0
LINE
  8
_0-5_1-2
  6
CONTINUOUS
 62
    7
 10
13.451788
 20
123.37698
 11
13.451788
 21
123.28695
  0
LINE
  8
_0-5_1-2
  6
CONTINUOUS
 62
    7
 10
13.451788
 20
99.626951
 11
5.851798
 21
99.626951
  0
LINE
  8
_0-5_1-2
  6
CONTINUOUS
 62
    7
 10
5.851798
 20
99.624781
 11
5.851798
 21
99.626951
  0
LINE
  8
_0-5_1-2
  6
CONTINUOUS
 62
    7
 10
5.851798
 20
123.37698
 11
13.451788
 21
123.37698
  0
LINE
  8
_0-5_1-2
  6
CONTINUOUS
 62
    7
 10
5.851798
 20
123.28695
 11
5.851798
 21
123.37698
  0
LINE
  8
_0-5_1-2
  6
CONTINUOUS
 62
    7
 10
5.851798
 20
123.28695
 11
13.451788
 21
123.28695
  0
LINE
  8
_0-5_1-2
  6
CONTINUOUS
 62
    7
 10
13.451788
 20
121.37696
 11
13.451788
 21
121.28698
  0
LINE
  8
_0-5_1-2
  6
CONTINUOUS
 62
    7
 10
5.851798
 20
121.37696
 11
13.451788
 21
121.37696
  0
LINE
  8
_0-5_1-2
  6
CONTINUOUS
 62
    7
 10
5.851798
 20
121.28698
 11
5.851798
 21
121.37696
  0
LINE
  8
_0-5_1-2
  6
CONTINUOUS
 62
    7
 10
5.851798
 20
121.28698
 11
13.451788
 21
121.28698
  0
LINE
  8
_0-5_1-2
  6
CONTINUOUS
 62
    7
 10
7.771783
 20
124.54407
 11
8.031792
 21
124.54407
  0
LINE
  8
_0-5_1-2
  6
CONTINUOUS
 62
    7
 10
11.531804
 20
124.54407
 11
11.531804
 21
124.25236
  0
LINE
  8
_0-5_1-2
  6
CONTINUOUS
 62
    7
 10
11.271794
 20
124.54407
 11
11.271794
 21
124.25236
  0
LINE
  8
_0-5_1-2
  6
CONTINUOUS
 62
    7
 10
11.271794
 20
111.3448
 11
11.271794
 21
124.54407
  0
LINE
  8
_0-5_1-2
  6
CONTINUOUS
 62
    7
 10
11.531804
 20
111.3448
 11
11.531804
 21
124.54407
  0
LINE
  8
_0-5_1-2
  6
CONTINUOUS
 62
    7
 10
11.271794
 20
124.54407
 11
11.531804
 21
124.54407
  0
LINE
  8
_0-5_1-2
  6
CONTINUOUS
 62
    7
 10
8.016525
 20
123.27406
 11
11.240245
 21
123.27406
  0
LINE
  8
_0-5_1-2
  6
CONTINUOUS
 62
    7
 10
8.016525
 20
123.01406
 11
11.240245
 21
123.01406
  0
LINE
  8
_0-5_1-2
  6
CONTINUOUS
 62
    7
 10
8.016525
 20
119.97405
 11
11.240245
 21
119.97405
  0
LINE
  8
_0-5_1-2
  6
CONTINUOUS
 62
    7
 10
8.016525
 20
119.71404
 11
11.240245
 21
119.71404
  0
LINE
  8
_0-5_1-2
  6
CONTINUOUS
 62
    7
 10
8.016525
 20
116.67406
 11
11.240245
 21
116.67406
  0
LINE
  8
_0-5_1-2
  6
CONTINUOUS
 62
    7
 10
8.016525
 20
116.41404
 11
11.240245
 21
116.41404
  0
LINE
  8
_0-5_1-2
  6
CONTINUOUS
 62
    7
 10
8.016525
 20
113.37405
 11
11.240245
 21
113.37405
  0
LINE
  8
_0-5_1-2
  6
CONTINUOUS
 62
    7
 10
8.016525
 20
113.11406
 11
11.240245
 21
113.11406
  0
LINE
  8
_0-5_1-2
  6
CONTINUOUS
 62
    7
 10
8.016525
 20
110.07406
 11
11.240245
 21
110.07406
  0
LINE
  8
_0-5_1-2
  6
CONTINUOUS
 62
    7
 10
8.016525
 20
109.81405
 11
11.240245
 21
109.81405
  0
LINE
  8
_0-5_1-2
  6
CONTINUOUS
 62
    7
 10
8.016525
 20
106.77407
 11
11.240245
 21
106.77407
  0
LINE
  8
_0-5_1-2
  6
CONTINUOUS
 62
    7
 10
8.016525
 20
106.51405
 11
11.240245
 21
106.51405
  0
LINE
  8
_0-5_1-2
  6
CONTINUOUS
 62
    7
 10
8.016525
 20
103.47405
 11
11.240245
 21
103.47405
  0
LINE
  8
_0-5_1-2
  6
CONTINUOUS
 62
    7
 10
8.016525
 20
103.21404
 11
11.240245
 21
103.21404
  0
LINE
  8
_0-5_1-2
  6
CONTINUOUS
 62
    7
 10
7.771783
 20
124.54407
 11
7.771783
 21
101.81405
  0
LINE
  8
_0-5_1-2
  6
CONTINUOUS
 62
    7
 10
8.031792
 20
124.54407
 11
8.031792
 21
101.81405
  0
LINE
  8
_0-5_1-2
  6
CONTINUOUS
 62
    7
 10
7.771783
 20
101.81405
 11
8.031792
 21
101.81405
  0
LINE
  8
_0-5_1-2
  6
CONTINUOUS
 62
    7
 10
11.271794
 20
124.54407
 11
11.271794
 21
101.81405
  0
LINE
  8
_0-5_1-2
  6
CONTINUOUS
 62
    7
 10
11.531804
 20
124.54407
 11
11.531804
 21
101.81405
  0
LINE
  8
_0-5_1-2
  6
CONTINUOUS
 62
    7
 10
11.271794
 20
101.81405
 11
11.531804
 21
101.81405
  0
LINE
  8
_0-5_1-2
  6
CONTINUOUS
 62
    7
 10
5.181929
 20
118.03044
 11
3.962112
 21
117.63644
  0
LINE
  8
_0-5_1-2
  6
CONTINUOUS
 62
    7
 10
5.151791
 20
118.11165
 11
5.151791
 21
120.13197
  0
LINE
  8
_0-5_1-2
  6
CONTINUOUS
 62
    7
 10
5.122915
 20
99.738401
 11
3.635529
 21
102.15111
  0
LINE
  8
_0-5_1-2
  6
CONTINUOUS
 62
    7
 10
5.001793
 20
103.05713
 11
4.145329
 21
103.05713
  0
LINE
  8
_0-5_1-2
  6
CONTINUOUS
 62
    7
 10
5.151791
 20
103.20715
 11
5.151791
 21
116.4875
  0
LINE
  8
_0-5_1-2
  6
CONTINUOUS
 62
    7
 10
5.151791
 20
98.456971
 11
5.151791
 21
99.718621
  0
LINE
  8
_0-5_1-2
  6
CONTINUOUS
 62
    7
 10
3.564266
 20
116.25695
 11
4.747623
 21
116.25695
  0
LINE
  8
_0-5_1-2
  6
CONTINUOUS
 62
    7
 10
3.551795
 20
116.45697
 11
6.115816
 21
116.45697
  0
LINE
  8
_0-5_1-2
  6
CONTINUOUS
 62
    7
 10
3.539621
 20
116.46481
 11
3.539621
 21
117.0565
  0
LINE
  8
_0-5_1-2
  6
CONTINUOUS
 62
    7
 10
4.751804
 20
101.94391
 11
4.751804
 21
116.44019
  0
LINE
  8
_0-5_1-2
  6
CONTINUOUS
 62
    7
 10
5.151791
 20
103.17908
 11
5.151791
 21
120.07255
  0
LINE
  8
_0-5_1-2
  6
CONTINUOUS
 62
    7
 10
2.851788
 20
110.35693
 11
4.747623
 21
110.35693
  0
LINE
  8
_0-5_1-2
  6
CONTINUOUS
 62
    7
 10
2.838303
 20
110.15695
 11
4.747623
 21
110.15695
  0
LINE
  8
_0-5_1-2
  6
CONTINUOUS
 62
    7
 10
2.851788
 20
104.15693
 11
4.747623
 21
104.15693
  0
LINE
  8
_0-5_1-2
  6
CONTINUOUS
 62
    7
 10
2.851788
 20
104.15693
 11
2.851788
 21
110.35693
  0
LINE
  8
_0-5_1-2
  6
CONTINUOUS
 62
    7
 10
3.551795
 20
110.40016
 11
3.551795
 21
116.45697
  0
LINE
  8
_0-5_1-2
  6
CONTINUOUS
 62
    7
 10
3.401797
 20
103.95693
 11
3.401797
 21
104.15849
  0
LINE
  8
_0-5_1-2
  6
CONTINUOUS
 62
    7
 10
3.401797
 20
103.95693
 11
4.747623
 21
103.95693
  0
LINE
  8
_0-5_1-2
  6
CONTINUOUS
 62
    7
 10
3.551795
 20
103.75692
 11
3.551795
 21
103.954
  0
LINE
  8
_0-5_1-2
  6
CONTINUOUS
 62
    7
 10
3.551795
 20
103.75692
 11
4.747623
 21
103.75692
  0
LINE
  8
_0-5_1-2
  6
CONTINUOUS
 62
    7
 10
3.801784
 20
103.75973
 11
3.801784
 21
103.45693
  0
LINE
  8
_0-5_1-2
  6
CONTINUOUS
 62
    7
 10
3.801784
 20
103.45693
 11
4.501791
 21
103.45693
  0
LINE
  8
_0-5_1-2
  6
CONTINUOUS
 62
    7
 10
4.501791
 20
103.75973
 11
4.501791
 21
103.45693
  0
LINE
  8
_0-5_1-2
  6
CONTINUOUS
 62
    7
 10
4.651789
 20
103.35713
 11
3.651786
 21
103.35713
  0
LINE
  8
_0-5_1-2
  6
CONTINUOUS
 62
    7
 10
3.651786
 20
103.35713
 11
3.651786
 21
102.819
  0
LINE
  8
_0-5_1-2
  6
CONTINUOUS
 62
    7
 10
4.651789
 20
103.35713
 11
4.651789
 21
103.05418
  0
LINE
  8
_0-5_1-2
  6
CONTINUOUS
 62
    7
 10
4.401788
 20
103.46319
 11
4.401788
 21
103.37116
  0
LINE
  8
_0-5_1-2
  6
CONTINUOUS
 62
    7
 10
3.901799
 20
103.46319
 11
3.901799
 21
103.37116
  0
LINE
  8
_0-5_1-2
  6
CONTINUOUS
 62
    7
 10
-2.348209
 20
88.286971
 11
-2.348209
 21
87.786961
  0
LINE
  8
_0-5_1-2
  6
CONTINUOUS
 62
    7
 10
13.451788
 20
88.286971
 11
-2.348209
 21
88.286971
  0
LINE
  8
_0-5_1-2
  6
CONTINUOUS
 62
    7
 10
13.451788
 20
87.786961
 11
-2.348209
 21
87.786961
  0
LINE
  8
_0-5_1-2
  6
CONTINUOUS
 62
    7
 10
13.451788
 20
99.626951
 11
13.451788
 21
87.786961
  0
LINE
  8
_0-5_1-2
  6
CONTINUOUS
 62
    7
 10
12.951787
 20
99.626951
 11
12.951787
 21
88.326801
  0
LINE
  8
_0-5_1-2
  6
CONTINUOUS
 62
    7
 10
12.885399
 20
96.786961
 11
-2.248219
 21
96.786961
  0
LINE
  8
_0-5_1-2
  6
CONTINUOUS
 62
    7
 10
-2.248219
 20
96.786961
 11
-2.248219
 21
88.283931
  0
LINE
  8
_0-5_1-2
  6
CONTINUOUS
 62
    7
 10
-1.908212
 20
96.446961
 11
-1.908212
 21
88.283931
  0
LINE
  8
_0-5_1-2
  6
CONTINUOUS
 62
    7
 10
12.885399
 20
96.446961
 11
-1.908212
 21
96.446961
  0
LINE
  8
_0-5_1-2
  6
CONTINUOUS
 62
    7
 10
12.885399
 20
92.456961
 11
-1.908212
 21
92.456961
  0
LINE
  8
_0-5_1-2
  6
CONTINUOUS
 62
    7
 10
12.885399
 20
92.116971
 11
-1.908212
 21
92.116971
  0
LINE
  8
_0-5_1-2
  6
CONTINUOUS
 62
    7
 10
9.077894
 20
123.45699
 11
10.136887
 21
123.45699
  0
LINE
  8
_0-5_1-2
  6
CONTINUOUS
 62
    7
 10
8.724884
 20
123.45698
 11
12.851784
 21
123.45698
  0
LINE
  8
_0-5_1-2
  6
CONTINUOUS
 62
    7
 10
8.724884
 20
123.45698
 11
10.401647
 21
123.45698
  0
LINE
  8
_0-5_1-2
  6
CONTINUOUS
 62
    7
 10
15.095247
 20
128.40769
 11
15.3921
 21
129.40713
  0
LINE
  8
_0-5_1-2
  6
CONTINUOUS
 62
    7
 10
13.671478
 20
129.82596
 11
14.505028
 21
130.82868
  0
LINE
  8
_0-5_1-2
  6
CONTINUOUS
 62
    7
 10
15.3921
 20
130.47255
 11
15.3921
 21
129.40713
  0
LINE
  8
_0-5_1-2
  6
CONTINUOUS
 62
    7
 10
13.69209
 20
129.8077
 11
13.69209
 21
129.63886
  0
LINE
  8
_0-5_1-2
  6
CONTINUOUS
 62
    7
 10
14.892098
 20
129.59719
 11
14.892098
 21
126.03767
  0
LINE
  8
_0-5_1-2
  6
CENTER1
 62
    2
 10
-17.55982
 20
130.84772
 11
-17.55982
 21
130.18075
  0
LINE
  8
_0-5_1-2
  6
CONTINUOUS
 62
    7
 10
-17.862451
 20
129.60771
 11
14.864385
 21
129.60771
  0
LINE
  8
_0-5_1-2
  6
CONTINUOUS
 62
    7
 10
-17.862451
 20
129.40767
 11
14.906054
 21
129.40767
  0
LINE
  8
_0-5_1-2
  6
CONTINUOUS
 62
    7
 10
14.811977
 20
128.40769
 11
15.095247
 21
128.40769
  0
LINE
  8
_0-5_1-2
  6
CONTINUOUS
 62
    7
 10
-16.862448
 20
129.63006
 11
-16.862448
 21
129.7662
  0
LINE
  8
_0-5_1-2
  6
CONTINUOUS
 62
    7
 10
-16.862448
 20
129.7662
 11
-17.077361
 21
130.63007
  0
LINE
  8
_0-5_1-2
  6
CONTINUOUS
 62
    7
 10
-18.062444
 20
130.5276
 11
-18.062444
 21
128.40769
  0
LINE
  8
_0-5_1-2
  6
CONTINUOUS
 62
    7
 10
-18.062444
 20
128.40769
 11
-17.851267
 21
128.40769
  0
LINE
  8
_0-5_1-2
  6
CONTINUOUS
 62
    7
 10
-19.657899
 20
133.37856
 11
-18.157894
 21
133.37856
  0
LINE
  8
_0-5_1-2
  6
CONTINUOUS
 62
    7
 10
-19.657899
 20
131.37859
 11
-18.157894
 21
131.37859
  0
LINE
  8
_0-5_1-2
  6
CONTINUOUS
 62
    7
 10
-18.157894
 20
133.37856
 11
-18.157894
 21
131.37859
  0
LINE
  8
_0-5_1-2
  6
CONTINUOUS
 62
    7
 10
-5.310027
 20
126.03767
 11
14.892098
 21
126.03767
  0
LINE
  8
_0-5_1-2
  6
CONTINUOUS
 62
    7
 10
-17.862451
 20
127.60398
 11
-5.310027
 21
126.03767
  0
LINE
  8
_0-5_1-2
  6
CONTINUOUS
 62
    7
 10
-17.862451
 20
127.60398
 11
-17.862451
 21
129.63006
  0
LINE
  8
_0-5_1-2
  6
CONTINUOUS
 62
    7
 10
-19.657899
 20
133.37856
 11
-19.657899
 21
131.37859
  0
LINE
  8
_0-5_1-2
  6
CONTINUOUS
 62
    7
 10
-5.310027
 20
126.17769
 11
14.892098
 21
126.17769
  0
LINE
  8
_0-5_1-2
  6
CONTINUOUS
 62
    7
 10
-17.84513
 20
127.7429
 11
-5.292681
 21
126.17664
  0
LINE
  8
_0-5_1-2
  6
CONTINUOUS
 62
    7
 10
-15.817658
 20
132.02591
 11
-15.817658
 21
129.64771
  0
LINE
  8
_0-5_1-2
  6
CONTINUOUS
 62
    7
 10
-11.891728
 20
131.98817
 11
-11.891728
 21
129.64771
  0
LINE
  8
_0-5_1-2
  6
CONTINUOUS
 62
    7
 10
-10.381751
 20
132.06369
 11
-10.381751
 21
129.64771
  0
LINE
  8
_0-5_1-2
  6
CONTINUOUS
 62
    7
 10
-17.357921
 20
138.4077
 11
-17.357921
 21
129.65203
  0
LINE
  8
_0-5_1-2
  6
CONTINUOUS
 62
    7
 10
-17.097911
 20
138.14769
 11
-17.097911
 21
129.65203
  0
LINE
  8
_0-5_1-2
  6
CONTINUOUS
 62
    7
 10
6.942104
 20
138.60771
 11
-17.157891
 21
138.60771
  0
LINE
  8
_0-5_1-2
  6
CONTINUOUS
 62
    7
 10
6.682095
 20
138.3477
 11
-16.897893
 21
138.3477
  0
LINE
  8
_0-5_1-2
  6
CONTINUOUS
 62
    7
 10
6.8821
 20
138.14769
 11
6.8821
 21
129.67734
  0
LINE
  8
_0-5_1-2
  6
CONTINUOUS
 62
    7
 10
7.14211
 20
138.4077
 11
7.14211
 21
129.75099
  0
LINE
  8
_0-5_1-2
  6
CONTINUOUS
 62
    7
 10
-5.107918
 20
138.15133
 11
-5.107918
 21
133.85423
  0
LINE
  8
_0-5_1-2
  6
CONTINUOUS
 62
    7
 10
-4.847908
 20
138.15133
 11
-4.847908
 21
133.85423
  0
LINE
  8
_0-5_1-2
  6
CONTINUOUS
 62
    7
 10
-6.455822
 20
131.6387
 11
-6.455822
 21
129.60998
  0
LINE
  8
_0-5_1-2
  6
CONTINUOUS
 62
    7
 10
-18.957892
 20
131.3982
 11
-18.957892
 21
130.97247
  0
LINE
  8
_0-5_1-2
  6
CONTINUOUS
 62
    7
 10
-18.3579
 20
131.3982
 11
-18.3579
 21
130.91926
  0
LINE
  8
_0-5_1-2
  6
CONTINUOUS
 62
    7
 10
-5.115019
 20
133.8477
 11
-17.082001
 21
133.8477
  0
LINE
  8
_0-5_1-2
  6
CONTINUOUS
 62
    7
 10
-5.104404
 20
133.58767
 11
-17.082001
 21
133.58767
  0
LINE
  8
_0-5_1-2
  6
CONTINUOUS
 62
    7
 10
-18.066131
 20
128.89187
 11
-19.081018
 21
130.21593
  0
LINE
  8
_0-5_1-2
  6
CONTINUOUS
 62
    7
 10
-18.033345
 20
130.56393
 11
-18.323629
 21
130.86655
  0
LINE
  8
_0-5_1-2
  6
CONTINUOUS
 62
    7
 10
7.111786
 20
94.249941
 11
7.111786
 21
99.520901
  0
LINE
  8
_0-5_1-2
  6
CONTINUOUS
 62
    7
 10
7.601791
 20
94.240861
 11
7.601791
 21
96.440421
  0
LINE
  8
_0-5_1-2
  6
CONTINUOUS
 62
    7
 10
7.601791
 20
96.834721
 11
7.601791
 21
99.520901
  0
LINE
  8
_0-5_1-2
  6
CONTINUOUS
 62
    7
 10
11.239738
 20
99.520901
 11
11.239738
 21
96.810071
  0
LINE
  8
_0-5_1-2
  6
CONTINUOUS
 62
    7
 10
11.239738
 20
96.415781
 11
11.239738
 21
94.251881
  0
LINE
  8
_0-5_1-2
  6
CONTINUOUS
 62
    7
 10
11.701795
 20
96.810071
 11
11.701795
 21
99.496261
  0
LINE
  8
_0-5_1-2
  6
CONTINUOUS
 62
    7
 10
12.191788
 20
94.252261
 11
12.191788
 21
96.415781
  0
LINE
  8
_0-5_1-2
  6
CONTINUOUS
 62
    7
 10
12.191788
 20
96.810071
 11
12.191788
 21
99.471611
  0
LINE
  8
_0-5_1-2
  6
CONTINUOUS
 62
    7
 10
6.351787
 20
96.810071
 11
6.351787
 21
99.624781
  0
LINE
  8
_0-5_1-2
  6
CONTINUOUS
 62
    7
 10
5.851798
 20
96.810071
 11
5.851798
 21
99.624781
  0
LINE
  8
_0-5_1-2
  6
CONTINUOUS
 62
    7
 10
5.151791
 20
98.467381
 11
5.151791
 21
96.810071
  0
LINE
  8
_0-5_1-2
  6
CONTINUOUS
 62
    7
 10
12.191788
 20
93.861721
 11
12.191788
 21
92.486031
  0
LINE
  8
_0-5_1-2
  6
CONTINUOUS
 62
    7
 10
11.701795
 20
93.873111
 11
11.701795
 21
92.505911
  0
LINE
  8
_0-5_1-2
  6
CONTINUOUS
 62
    7
 10
11.239738
 20
92.486031
 11
11.239738
 21
93.862101
  0
LINE
  8
_0-5_1-2
  6
CONTINUOUS
 62
    7
 10
10.426787
 20
93.842311
 11
10.426787
 21
92.486031
  0
LINE
  8
_0-5_1-2
  6
CONTINUOUS
 62
    7
 10
10.426787
 20
92.128071
 11
10.426787
 21
92.107001
  0
LINE
  8
_0-5_1-2
  6
CONTINUOUS
 62
    7
 10
10.076783
 20
93.842311
 11
10.076783
 21
92.505911
  0
LINE
  8
_0-5_1-2
  6
CONTINUOUS
 62
    7
 10
10.076783
 20
92.128071
 11
10.076783
 21
92.107001
  0
LINE
  8
_0-5_1-2
  6
CONTINUOUS
 62
    7
 10
9.226778
 20
93.842311
 11
9.226778
 21
92.466121
  0
LINE
  8
_0-5_1-2
  6
CONTINUOUS
 62
    7
 10
9.226778
 20
92.108211
 11
9.226778
 21
92.107001
  0
LINE
  8
_0-5_1-2
  6
CONTINUOUS
 62
    7
 10
8.876787
 20
93.842311
 11
8.876787
 21
92.486031
  0
LINE
  8
_0-5_1-2
  6
CONTINUOUS
 62
    7
 10
8.876787
 20
92.108211
 11
8.876787
 21
92.107001
  0
LINE
  8
_0-5_1-2
  6
CONTINUOUS
 62
    7
 10
8.063836
 20
92.486031
 11
8.063836
 21
93.862101
  0
LINE
  8
_0-5_1-2
  6
CONTINUOUS
 62
    7
 10
7.601791
 20
93.873111
 11
7.601791
 21
92.466121
  0
LINE
  8
_0-5_1-2
  6
CONTINUOUS
 62
    7
 10
7.111786
 20
93.862661
 11
7.111786
 21
92.466121
  0
LINE
  8
_0-5_1-2
  6
CONTINUOUS
 62
    7
 10
6.648851
 20
93.864251
 11
7.00801
 21
92.530261
  0
LINE
  8
_0-5_1-2
  6
CONTINUOUS
 62
    7
 10
6.45179
 20
93.865351
 11
6.806099
 21
92.549311
  0
LINE
  8
_0-5_1-2
  6
CONTINUOUS
 62
    7
 10
6.92492
 20
92.108001
 11
6.944344
 21
92.113231
  0
LINE
  8
_0-5_1-2
  6
CONTINUOUS
 62
    7
 10
7.111786
 20
92.114641
 11
7.111786
 21
89.858451
  0
LINE
  8
_0-5_1-2
  6
CONTINUOUS
 62
    7
 10
12.654735
 20
93.864251
 11
12.280953
 21
92.475941
  0
LINE
  8
_0-5_1-2
  6
CONTINUOUS
 62
    7
 10
12.851784
 20
93.865351
 11
12.476257
 21
92.470541
  0
LINE
  8
_0-5_1-2
  6
CONTINUOUS
 62
    7
 10
12.378654
 20
92.108001
 11
12.356372
 21
92.114001
  0
LINE
  8
_0-5_1-2
  6
CONTINUOUS
 62
    7
 10
5.151791
 20
96.440421
 11
5.151791
 21
92.470611
  0
LINE
  8
_0-5_1-2
  6
CONTINUOUS
 62
    7
 10
5.151791
 20
92.106791
 11
5.151791
 21
88.347261
  0
LINE
  8
_0-5_1-2
  6
CONTINUOUS
 62
    7
 10
6.151794
 20
99.673571
 11
6.151794
 21
126.13696
  0
LINE
  8
_0-5_1-2
  6
CONTINUOUS
 62
    7
 10
5.151791
 20
98.456971
 11
5.784866
 21
98.456971
  0
LINE
  8
_0-5_1-2
  6
CONTINUOUS
 62
    7
 10
13.451788
 20
99.536971
 11
5.826213
 21
99.536971
  0
LINE
  8
_0-5_1-2
  6
CONTINUOUS
 62
    7
 10
5.151791
 20
99.456961
 11
5.826213
 21
99.456961
  0
LINE
  8
_0-5_1-2
  6
CONTINUOUS
 62
    7
 10
7.601791
 20
93.873111
 11
7.601791
 21
92.521141
  0
LINE
  8
_0-5_1-2
  6
CONTINUOUS
 62
    7
 10
8.063836
 20
92.521141
 11
8.063836
 21
93.862101
  0
LINE
  8
_0-5_1-2
  6
CONTINUOUS
 62
    7
 10
11.239738
 20
92.562471
 11
11.239738
 21
93.862101
  0
LINE
  8
_0-5_1-2
  6
CONTINUOUS
 62
    7
 10
11.701795
 20
93.873111
 11
11.701795
 21
92.521141
  0
LINE
  8
_0-5_1-2
  6
CONTINUOUS
 62
    7
 10
12.191788
 20
93.861721
 11
12.191788
 21
92.562471
  0
LINE
  8
_0-5_1-2
  6
CONTINUOUS
 62
    7
 10
12.191788
 20
92.128071
 11
12.191788
 21
88.386751
  0
LINE
  8
_0-5_1-2
  6
CONTINUOUS
 62
    7
 10
12.191788
 20
87.725271
 11
12.191788
 21
79.165721
  0
LINE
  8
_0-5_1-2
  6
CONTINUOUS
 62
    7
 10
11.701795
 20
92.088321
 11
11.701795
 21
88.345411
  0
LINE
  8
_0-5_1-2
  6
CONTINUOUS
 62
    7
 10
11.701795
 20
87.725271
 11
11.701795
 21
79.104021
  0
LINE
  8
_0-5_1-2
  6
CONTINUOUS
 62
    7
 10
11.239738
 20
79.070541
 11
11.239738
 21
87.725271
  0
LINE
  8
_0-5_1-2
  6
CONTINUOUS
 62
    7
 10
11.239738
 20
88.345411
 11
11.239738
 21
92.108211
  0
LINE
  8
_0-5_1-2
  6
CONTINUOUS
 62
    7
 10
8.063836
 20
79.070541
 11
8.063836
 21
87.725271
  0
LINE
  8
_0-5_1-2
  6
CONTINUOUS
 62
    7
 10
8.063836
 20
88.386751
 11
8.063836
 21
92.108211
  0
LINE
  8
_0-5_1-2
  6
CONTINUOUS
 62
    7
 10
7.601791
 20
92.108211
 11
7.601791
 21
88.386751
  0
LINE
  8
_0-5_1-2
  6
CONTINUOUS
 62
    7
 10
7.601791
 20
87.642581
 11
7.601791
 21
79.104021
  0
LINE
  8
_0-5_1-2
  6
CONTINUOUS
 62
    7
 10
7.111786
 20
88.468111
 11
7.111786
 21
88.345411
  0
LINE
  8
_0-5_1-2
  6
CONTINUOUS
 62
    7
 10
7.111786
 20
87.766621
 11
7.111786
 21
80.066381
  0
LINE
  8
_0-5_1-2
  6
CONTINUOUS
 62
    7
 10
6.611785
 20
88.468111
 11
6.611785
 21
88.345411
  0
LINE
  8
_0-5_1-2
  6
CONTINUOUS
 62
    7
 10
6.611785
 20
87.725271
 11
6.611785
 21
80.064741
  0
LINE
  8
_0-5_1-2
  6
CONTINUOUS
 62
    7
 10
11.701795
 20
94.240861
 11
11.701795
 21
96.366071
  0
LINE
  8
_0-5_1-2
  6
CONTINUOUS
 62
    7
 10
6.351787
 20
88.326801
 11
6.351787
 21
92.107691
  0
LINE
  8
_0-5_1-2
  6
CONTINUOUS
 62
    7
 10
6.351787
 20
92.562471
 11
6.351787
 21
96.440421
  0
LINE
  8
_0-5_1-2
  6
CONTINUOUS
 62
    7
 10
5.851798
 20
88.326801
 11
5.851798
 21
92.149041
  0
LINE
  8
_0-5_1-2
  6
CONTINUOUS
 62
    7
 10
5.851798
 20
92.562471
 11
5.851798
 21
96.407421
  0
LINE
  8
_0-5_1-2
  6
CONTINUOUS
 62
    7
 10
-17.973898
 20
162.43485
 11
-18.057384
 21
164.66614
  0
LINE
  8
_0-5_1-2
  6
CONTINUOUS
 62
    7
 10
-17.973898
 20
162.43485
 11
-17.159561
 21
162.43485
  0
LINE
  8
_0-5_1-2
  6
CONTINUOUS
 62
    7
 10
-20.652471
 20
171.01193
 11
-18.021344
 21
164.49756
  0
LINE
  8
_0-5_1-2
  6
CONTINUOUS
 62
    7
 10
-15.245985
 20
164.60513
 11
-14.355598
 21
165.37201
  0
LINE
  8
_0-5_1-2
  6
CONTINUOUS
 62
    7
 10
-17.159561
 20
162.43485
 11
-17.058247
 21
164.66211
  0
LINE
  8
_0-5_1-2
  6
CONTINUOUS
 62
    7
 10
-20.448234
 20
171.33477
 11
-18.834407
 21
171.33477
  0
LINE
  8
_0-5_1-2
  6
CONTINUOUS
 62
    7
 10
-18.834407
 20
171.33477
 11
-14.364753
 21
165.36731
  0
LINE
  8
_0-5_1-2
  6
CONTINUOUS
 62
    7
 10
-17.95842
 20
131.50811
 11
-18.055145
 21
130.55827
  0
LINE
  8
_0-5_1-2
  6
CONTINUOUS
 62
    7
 10
-17.163879
 20
131.50811
 11
-17.060672
 21
130.56181
  0
LINE
  8
_0-5_1-2
  6
CONTINUOUS
 62
    7
 10
-17.957715
 20
162.41299
 11
-17.957715
 21
131.50761
  0
LINE
  8
_0-5_1-2
  6
CONTINUOUS
 62
    7
 10
-17.957715
 20
131.50761
 11
-17.157718
 21
131.50761
  0
LINE
  8
_0-5_1-2
  6
CONTINUOUS
 62
    7
 10
-17.157718
 20
162.46102
 11
-17.157718
 21
131.50761
  0
LINE
  8
_0-5_1-2
  6
CONTINUOUS
 62
    7
 10
-15.400016
 20
164.76013
 11
13.785461
 21
130.87331
  0
LINE
  8
_0-5_1-2
  6
CONTINUOUS
 62
    7
 10
13.785461
 20
130.87331
 11
14.694716
 21
131.65641
  0
LINE
  8
_0-5_1-2
  6
CONTINUOUS
 62
    7
 10
-14.348459
 20
165.37802
 11
14.694716
 21
131.65641
  0
LINE
  8
_0-5_1-2
  6
CONTINUOUS
 62
    7
 10
14.699219
 20
131.65277
 11
15.301488
 21
130.79489
  0
LINE
  8
_0-5_1-2
  6
CONTINUOUS
 62
    7
 10
13.79208
 20
130.86794
 11
14.546685
 21
130.14627
  0
LINE
  8
_0-5_1-2
  6
CONTINUOUS
 62
    7
 10
-6.55773
 20
161.00759
 11
-6.55773
 21
160.00758
  0
LINE
  8
_0-5_1-2
  6
CONTINUOUS
 62
    7
 10
-6.55773
 20
161.00759
 11
-6.677726
 21
161.00759
  0
LINE
  8
_0-5_1-2
  6
CONTINUOUS
 62
    7
 10
-6.55773
 20
160.00758
 11
-6.677726
 21
160.00758
  0
LINE
  8
_0-5_1-2
  6
CONTINUOUS
 62
    7
 10
-6.677726
 20
161.00759
 11
-6.677726
 21
160.00758
  0
LINE
  8
_0-5_1-2
  6
CONTINUOUS
 62
    7
 10
-9.686334
 20
160.90757
 11
-9.686334
 21
160.1076
  0
LINE
  8
_0-5_1-2
  6
CONTINUOUS
 62
    7
 10
-12.344382
 20
160.90757
 11
-12.117727
 21
160.90757
  0
LINE
  8
_0-5_1-2
  6
CONTINUOUS
 62
    7
 10
-10.512016
 20
160.90757
 11
-9.686334
 21
160.90757
  0
LINE
  8
_0-5_1-2
  6
CONTINUOUS
 62
    7
 10
-12.344382
 20
160.1076
 11
-11.44062
 21
160.1076
  0
LINE
  8
_0-5_1-2
  6
CONTINUOUS
 62
    7
 10
-9.815572
 20
160.1076
 11
-9.686334
 21
160.1076
  0
LINE
  8
_0-5_1-2
  6
CONTINUOUS
 62
    7
 10
-9.696887
 20
160.8576
 11
-6.684567
 21
160.8576
  0
LINE
  8
_0-5_1-2
  6
CONTINUOUS
 62
    7
 10
-9.696887
 20
160.15759
 11
-6.684567
 21
160.15759
  0
LINE
  8
_0-5_1-2
  6
CONTINUOUS
 62
    7
 10
-12.46439
 20
161.00759
 11
-12.344382
 21
161.00759
  0
LINE
  8
_0-5_1-2
  6
CONTINUOUS
 62
    7
 10
-12.344382
 20
161.00759
 11
-12.344382
 21
160.00758
  0
LINE
  8
_0-5_1-2
  6
CONTINUOUS
 62
    7
 10
-12.46439
 20
160.00758
 11
-12.344382
 21
160.00758
  0
LINE
  8
_0-5_1-2
  6
CONTINUOUS
 62
    7
 10
-12.46439
 20
161.00759
 11
-12.46439
 21
160.00758
  0
LINE
  8
_0-5_1-2
  6
CENTER1
 62
    4
 10
-19.557711
 20
169.7614
 11
-19.557711
 21
170.99525
  0
LINE
  8
_0-5_1-2
  6
CONTINUOUS
 62
    7
 10
66.645876
 20
153.29311
 11
66.842836
 21
152.72104
  0
LINE
  8
_0-5_1-2
  6
CONTINUOUS
 62
    7
 10
64.493296
 20
158.96104
 11
64.672936
 21
159.02293
  0
LINE
  8
_0-5_1-2
  6
CONTINUOUS
 62
    7
 10
64.493296
 20
158.96104
 11
64.908396
 21
157.75553
  0
LINE
  8
_0-5_1-2
  6
CONTINUOUS
 62
    7
 10
64.672936
 20
159.02293
 11
65.088016
 21
157.8174
  0
LINE
  8
_0-5_1-2
  6
CONTINUOUS
 62
    7
 10
64.908396
 20
157.75553
 11
65.088016
 21
157.8174
  0
LINE
  8
_0-5_1-2
  6
CONTINUOUS
 62
    7
 10
66.772266
 20
152.34246
 11
66.951956
 21
152.40433
  0
LINE
  8
_0-5_1-2
  6
CONTINUOUS
 62
    7
 10
66.772266
 20
152.34246
 11
66.357166
 21
153.54802
  0
LINE
  8
_0-5_1-2
  6
CONTINUOUS
 62
    7
 10
66.951956
 20
152.40433
 11
66.536906
 21
153.60981
  0
LINE
  8
_0-5_1-2
  6
CONTINUOUS
 62
    7
 10
66.357166
 20
153.54802
 11
66.536906
 21
153.60981
  0
LINE
  8
_0-5_1-2
  6
CONTINUOUS
 62
    7
 10
113.74217
 20
169.50963
 11
113.93911
 21
168.93759
  0
LINE
  8
_0-5_1-2
  6
CONTINUOUS
 62
    7
 10
111.58948
 20
175.17766
 11
111.76922
 21
175.23949
  0
LINE
  8
_0-5_1-2
  6
CONTINUOUS
 62
    7
 10
111.58948
 20
175.17766
 11
112.00461
 21
173.9721
  0
LINE
  8
_0-5_1-2
  6
CONTINUOUS
 62
    7
 10
111.76922
 20
175.23949
 11
112.18423
 21
174.03386
  0
LINE
  8
_0-5_1-2
  6
CONTINUOUS
 62
    7
 10
112.00461
 20
173.9721
 11
112.18423
 21
174.03386
  0
LINE
  8
_0-5_1-2
  6
CONTINUOUS
 62
    7
 10
113.86844
 20
168.55896
 11
114.04814
 21
168.6209
  0
LINE
  8
_0-5_1-2
  6
CONTINUOUS
 62
    7
 10
113.86844
 20
168.55896
 11
113.45337
 21
169.76454
  0
LINE
  8
_0-5_1-2
  6
CONTINUOUS
 62
    7
 10
114.04814
 20
168.6209
 11
113.63305
 21
169.8264
  0
LINE
  8
_0-5_1-2
  6
CONTINUOUS
 62
    7
 10
113.45337
 20
169.76454
 11
113.63305
 21
169.8264
  0
LINE
  8
_0-5_1-2
  6
CONTINUOUS
 62
    7
 10
65.925056
 20
158.45795
 11
67.586796
 21
153.63224
  0
LINE
  8
_0-5_1-2
  6
CONTINUOUS
 62
    7
 10
66.180416
 20
158.54584
 11
67.841976
 21
153.72013
  0
LINE
  8
_0-5_1-2
  6
CONTINUOUS
 62
    7
 10
110.95056
 20
173.96141
 11
112.61222
 21
169.13579
  0
LINE
  8
_0-5_1-2
  6
CONTINUOUS
 62
    7
 10
110.6954
 20
173.87352
 11
112.35691
 21
169.0479
  0
LINE
  8
_0-5_1-2
  6
CONTINUOUS
 62
    7
 10
88.574876
 20
166.22662
 11
90.183576
 21
161.55439
  0
LINE
  8
_0-5_1-2
  6
CONTINUOUS
 62
    7
 10
88.319576
 20
166.13873
 11
89.928286
 21
161.46645
  0
LINE
  8
_0-5_1-2
  6
CENTER1
 62
    7
 10
68.000856
 20
152.84427
 11
67.624376
 21
153.93725
  0
LINE
  8
_0-5_1-2
  6
CONTINUOUS
 62
    7
 10
67.991996
 20
153.76755
 11
69.947636
 21
159.86297
  0
LINE
  8
_0-5_1-2
  6
CONTINUOUS
 62
    7
 10
68.303876
 20
153.85589
 11
70.264226
 21
159.96593
  0
LINE
  8
_0-5_1-2
  6
CONTINUOUS
 62
    7
 10
76.944076
 20
156.84996
 11
78.899816
 21
162.94546
  0
LINE
  8
_0-5_1-2
  6
CONTINUOUS
 62
    7
 10
77.255986
 20
156.93837
 11
79.216416
 21
163.04845
  0
LINE
  8
_0-5_1-2
  6
CONTINUOUS
 62
    7
 10
85.896296
 20
159.93249
 11
87.851936
 21
166.02794
  0
LINE
  8
_0-5_1-2
  6
CONTINUOUS
 62
    7
 10
86.208176
 20
160.02083
 11
88.168536
 21
166.13088
  0
LINE
  8
_0-5_1-2
  6
CONTINUOUS
 62
    7
 10
103.81005
 20
166.10068
 11
105.76557
 21
172.19613
  0
LINE
  8
_0-5_1-2
  6
CONTINUOUS
 62
    7
 10
104.12193
 20
166.18902
 11
106.08236
 21
172.29916
  0
LINE
  8
_0-5_1-2
  6
CONTINUOUS
 62
    7
 10
94.857946
 20
163.0182
 11
96.813496
 21
169.11362
  0
LINE
  8
_0-5_1-2
  6
CONTINUOUS
 62
    7
 10
95.169746
 20
163.10654
 11
97.130146
 21
169.21666
  0
LINE
  8
_0-5_1-2
  6
CONTINUOUS
 62
    7
 10
73.392806
 20
158.37209
 11
70.784856
 21
160.14519
  0
LINE
  8
_0-5_1-2
  6
CONTINUOUS
 62
    7
 10
85.343666
 20
159.74216
 11
82.848116
 21
161.43898
  0
LINE
  8
_0-5_1-2
  6
CONTINUOUS
 62
    7
 10
94.305316
 20
162.82801
 11
91.706236
 21
164.5951
  0
LINE
  8
_0-5_1-2
  6
CONTINUOUS
 62
    7
 10
102.95731
 20
165.78801
 11
100.58348
 21
167.40203
  0
LINE
  8
_0-5_1-2
  6
CONTINUOUS
 62
    7
 10
103.25761
 20
165.91043
 11
100.7603
 21
167.6083
  0
LINE
  8
_0-5_1-2
  6
CONTINUOUS
 62
    7
 10
109.104
 20
170.7779
 11
106.60295
 21
172.47841
  0
LINE
  8
_0-5_1-2
  6
CONTINUOUS
 62
    7
 10
112.20969
 20
168.99295
 11
109.67036
 21
170.71951
  0
LINE
  8
_0-5_1-2
  6
CONTINUOUS
 62
    7
 10
17.217439
 20
142.68268
 11
17.397068
 21
142.74451
  0
LINE
  8
_0-5_1-2
  6
CONTINUOUS
 62
    7
 10
17.217439
 20
142.68268
 11
17.632494
 21
141.47716
  0
LINE
  8
_0-5_1-2
  6
CONTINUOUS
 62
    7
 10
17.397068
 20
142.74451
 11
17.812148
 21
141.53899
  0
LINE
  8
_0-5_1-2
  6
CONTINUOUS
 62
    7
 10
17.632494
 20
141.47716
 11
17.812148
 21
141.53899
  0
LINE
  8
_0-5_1-2
  6
CONTINUOUS
 62
    7
 10
66.466186
 20
153.23124
 11
66.663176
 21
152.65917
  0
LINE
  8
_0-5_1-2
  6
CONTINUOUS
 62
    7
 10
64.313646
 20
158.89921
 11
64.493296
 21
158.96104
  0
LINE
  8
_0-5_1-2
  6
CONTINUOUS
 62
    7
 10
64.313646
 20
158.89921
 11
64.728766
 21
157.69368
  0
LINE
  8
_0-5_1-2
  6
CONTINUOUS
 62
    7
 10
64.493296
 20
158.96104
 11
64.908396
 21
157.75553
  0
LINE
  8
_0-5_1-2
  6
CONTINUOUS
 62
    7
 10
64.728766
 20
157.69368
 11
64.908396
 21
157.75553
  0
LINE
  8
_0-5_1-2
  6
CONTINUOUS
 62
    7
 10
66.592506
 20
152.28061
 11
66.772266
 21
152.34246
  0
LINE
  8
_0-5_1-2
  6
CONTINUOUS
 62
    7
 10
66.592506
 20
152.28061
 11
66.177496
 21
153.48612
  0
LINE
  8
_0-5_1-2
  6
CONTINUOUS
 62
    7
 10
66.772266
 20
152.34246
 11
66.357166
 21
153.54802
  0
LINE
  8
_0-5_1-2
  6
CONTINUOUS
 62
    7
 10
66.177496
 20
153.48612
 11
66.357166
 21
153.54802
  0
LINE
  8
_0-5_1-2
  6
CONTINUOUS
 62
    7
 10
18.649212
 20
142.1796
 11
20.31082
 21
137.35383
  0
LINE
  8
_0-5_1-2
  6
CONTINUOUS
 62
    7
 10
18.904545
 20
142.26743
 11
20.566116
 21
137.44172
  0
LINE
  8
_0-5_1-2
  6
CONTINUOUS
 62
    7
 10
63.674646
 20
157.68312
 11
65.336356
 21
152.85737
  0
LINE
  8
_0-5_1-2
  6
CONTINUOUS
 62
    7
 10
63.419506
 20
157.59522
 11
65.081216
 21
152.76944
  0
LINE
  8
_0-5_1-2
  6
CONTINUOUS
 62
    7
 10
41.298986
 20
149.94827
 11
42.907716
 21
145.27596
  0
LINE
  8
_0-5_1-2
  6
CONTINUOUS
 62
    7
 10
41.043596
 20
149.86031
 11
42.652406
 21
145.188
  0
LINE
  8
_0-5_1-2
  6
CONTINUOUS
 62
    7
 10
20.716028
 20
137.48918
 11
22.671693
 21
143.58456
  0
LINE
  8
_0-5_1-2
  6
CONTINUOUS
 62
    7
 10
21.027938
 20
137.57744
 11
22.988366
 21
143.68757
  0
LINE
  8
_0-5_1-2
  6
CONTINUOUS
 62
    7
 10
29.668202
 20
140.5716
 11
31.623855
 21
146.66707
  0
LINE
  8
_0-5_1-2
  6
CONTINUOUS
 62
    7
 10
29.980125
 20
140.65995
 11
31.940455
 21
146.77003
  0
LINE
  8
_0-5_1-2
  6
CONTINUOUS
 62
    7
 10
38.620376
 20
143.65407
 11
40.576066
 21
149.74955
  0
LINE
  8
_0-5_1-2
  6
CONTINUOUS
 62
    7
 10
38.932246
 20
143.74245
 11
40.892636
 21
149.85249
  0
LINE
  8
_0-5_1-2
  6
CONTINUOUS
 62
    7
 10
56.534176
 20
149.82227
 11
58.489736
 21
155.91773
  0
LINE
  8
_0-5_1-2
  6
CONTINUOUS
 62
    7
 10
56.846076
 20
149.91068
 11
58.806386
 21
156.02069
  0
LINE
  8
_0-5_1-2
  6
CONTINUOUS
 62
    7
 10
47.581926
 20
146.73983
 11
49.537716
 21
152.83529
  0
LINE
  8
_0-5_1-2
  6
CONTINUOUS
 62
    7
 10
47.893826
 20
146.82813
 11
49.854316
 21
152.93828
  0
LINE
  8
_0-5_1-2
  6
CONTINUOUS
 62
    7
 10
37.76765
 20
143.3414
 11
35.403536
 21
144.94875
  0
LINE
  8
_0-5_1-2
  6
CONTINUOUS
 62
    7
 10
38.067836
 20
143.46383
 11
35.572178
 21
145.16054
  0
LINE
  8
_0-5_1-2
  6
CONTINUOUS
 62
    7
 10
46.729246
 20
146.42723
 11
44.338096
 21
148.05292
  0
LINE
  8
_0-5_1-2
  6
CONTINUOUS
 62
    7
 10
47.029536
 20
146.54956
 11
44.430386
 21
148.3167
  0
LINE
  8
_0-5_1-2
  6
CONTINUOUS
 62
    7
 10
55.681446
 20
149.50961
 11
53.307496
 21
151.12363
  0
LINE
  8
_0-5_1-2
  6
CONTINUOUS
 62
    7
 10
55.981576
 20
149.63198
 11
53.484466
 21
151.32992
  0
LINE
  8
_0-5_1-2
  6
CONTINUOUS
 62
    7
 10
64.633546
 20
152.59214
 11
62.302046
 21
154.17725
  0
LINE
  8
_0-5_1-2
  6
CONTINUOUS
 62
    7
 10
64.933836
 20
152.71451
 11
62.394366
 21
154.44107
  0
LINE
  8
_0-5_1-2
  6
CONTINUOUS
 62
    7
 10
19.568513
 20
137.08308
 11
66.271156
 21
153.16405
  0
LINE
  8
_0-5_1-2
  6
CONTINUOUS
 62
    7
 10
19.765488
 20
136.51108
 11
19.568513
 21
137.08308
  0
LINE
  8
_0-5_1-2
  6
CONTINUOUS
 62
    7
 10
19.765488
 20
136.51108
 11
66.455346
 21
152.58764
  0
LINE
  8
_0-5_1-2
  6
CONTINUOUS
 62
    7
 10
17.481556
 20
142.41937
 11
64.394446
 21
158.57275
  0
LINE
  8
_0-5_1-2
  6
CONTINUOUS
 62
    7
 10
17.217439
 20
142.68268
 11
17.037822
 21
142.62081
  0
LINE
  8
_0-5_1-2
  6
CONTINUOUS
 62
    7
 10
17.217439
 20
142.68268
 11
17.632494
 21
141.47716
  0
LINE
  8
_0-5_1-2
  6
CONTINUOUS
 62
    7
 10
17.037822
 20
142.62081
 11
17.452853
 21
141.41531
  0
LINE
  8
_0-5_1-2
  6
CONTINUOUS
 62
    7
 10
17.632494
 20
141.47716
 11
17.452853
 21
141.41531
  0
LINE
  8
_0-5_1-2
  6
CONTINUOUS
 62
    7
 10
19.76529
 20
136.50749
 11
19.381795
 21
136.38043
  0
LINE
  8
_0-5_1-2
  6
CONTINUOUS
 62
    7
 10
19.571433
 20
137.0814
 11
19.189262
 21
136.94862
  0
LINE
  8
_0-5_1-2
  6
CONTINUOUS
 62
    7
 10
0.103474
 20
133.10408
 11
0.434895
 21
132.14163
  0
LINE
  8
_0-5_1-2
  6
CONTINUOUS
 62
    7
 10
16.450153
 20
141.25578
 11
18.029685
 21
136.66852
  0
LINE
  8
_0-5_1-2
  6
CONTINUOUS
 62
    7
 10
16.207884
 20
141.13011
 11
17.763106
 21
136.61324
  0
LINE
  8
_0-5_1-2
  6
CONTINUOUS
 62
    7
 10
17.721771
 20
141.86218
 11
64.604126
 21
158.00508
  0
LINE
  8
_0-5_1-2
  6
CONTINUOUS
 62
    7
 10
29.115645
 20
140.38133
 11
23.983359
 21
143.87088
  0
LINE
  8
_0-5_1-2
  6
CONTINUOUS
 62
    7
 10
28.63498
 20
140.38165
 11
23.508955
 21
143.86687
  0
LINE
  8
_0-5_1-2
  6
CONTINUOUS
 62
    7
 10
35.483694
 20
144.89426
 11
32.461142
 21
146.94935
  0
LINE
  8
_0-5_1-2
  6
CONTINUOUS
 62
    7
 10
35.813469
 20
144.99658
 11
32.774067
 21
147.06312
  0
LINE
  8
_0-5_1-2
  6
CONTINUOUS
 62
    7
 10
62.525456
 20
154.02537
 11
59.327126
 21
156.19999
  0
LINE
  8
_0-5_1-2
  6
CONTINUOUS
 62
    7
 10
62.725266
 20
154.21611
 11
59.639916
 21
156.31372
  0
LINE
  8
_0-5_1-2
  6
CONTINUOUS
 62
    7
 10
53.836486
 20
151.09053
 11
50.687766
 21
153.23128
  0
LINE
  8
_0-5_1-2
  6
CONTINUOUS
 62
    7
 10
53.771586
 20
150.80815
 11
50.374876
 21
153.11752
  0
LINE
  8
_0-5_1-2
  6
CONTINUOUS
 62
    7
 10
44.930846
 20
147.6499
 11
41.422726
 21
150.03507
  0
LINE
  8
_0-5_1-2
  6
CONTINUOUS
 62
    7
 10
44.822246
 20
148.05021
 11
41.735666
 21
150.1488
  0
LINE
  8
_0-5_1-2
  6
CONTINUOUS
 62
    7
 10
111.90947
 20
168.87049
 11
108.79865
 21
170.98565
  0
LINE
  8
_0-5_1-2
  6
CONTINUOUS
 62
    7
 10
110.07426
 20
170.44487
 11
106.91589
 21
172.59218
  0
LINE
  8
_0-5_1-2
  6
CONTINUOUS
 62
    7
 10
100.74315
 20
167.61993
 11
97.963696
 21
169.50967
  0
LINE
  8
_0-5_1-2
  6
CONTINUOUS
 62
    7
 10
100.8228
 20
167.23932
 11
97.650926
 21
169.3959
  0
LINE
  8
_0-5_1-2
  6
CONTINUOUS
 62
    7
 10
92.504666
 20
164.05222
 11
89.011546
 21
166.42722
  0
LINE
  8
_0-5_1-2
  6
CONTINUOUS
 62
    7
 10
94.005126
 20
162.70554
 11
92.163336
 21
163.95774
  0
LINE
  8
_0-5_1-2
  6
CONTINUOUS
 62
    7
 10
92.474726
 20
163.74612
 11
88.698646
 21
166.31347
  0
LINE
  8
_0-5_1-2
  6
CONTINUOUS
 62
    7
 10
83.532406
 20
160.97382
 11
80.049966
 21
163.34147
  0
LINE
  8
_0-5_1-2
  6
CONTINUOUS
 62
    7
 10
85.043596
 20
159.61983
 11
83.190456
 21
160.87977
  0
LINE
  8
_0-5_1-2
  6
CONTINUOUS
 62
    7
 10
83.536886
 20
160.64426
 11
79.737126
 21
163.22772
  0
LINE
  8
_0-5_1-2
  6
CONTINUOUS
 62
    7
 10
76.391546
 20
156.65968
 11
74.338856
 21
158.05534
  0
LINE
  8
_0-5_1-2
  6
CONTINUOUS
 62
    7
 10
74.633356
 20
157.85519
 11
71.097716
 21
160.259
  0
LINE
  8
_0-5_1-2
  6
CONTINUOUS
 62
    7
 10
76.091376
 20
156.53735
 11
72.558476
 21
158.93942
  0
LINE
  8
_0-5_1-2
  6
CENTER1
 62
    7
 10
-5.408198
 20
130.6819
 11
-5.303952
 21
130.37924
  0
LINE
  8
_0-5_1-2
  6
CONTINUOUS
 62
    7
 10
113.74217
 20
169.50963
 11
113.93911
 21
168.93759
  0
LINE
  8
_0-5_1-2
  6
CONTINUOUS
 62
    7
 10
111.94891
 20
175.30135
 11
111.76922
 21
175.23949
  0
LINE
  8
_0-5_1-2
  6
CONTINUOUS
 62
    7
 10
111.76922
 20
175.23949
 11
112.18423
 21
174.03386
  0
LINE
  8
_0-5_1-2
  6
CONTINUOUS
 62
    7
 10
112.36405
 20
174.09582
 11
112.18423
 21
174.03386
  0
LINE
  8
_0-5_1-2
  6
CONTINUOUS
 62
    7
 10
114.22776
 20
168.68273
 11
114.04814
 21
168.6209
  0
LINE
  8
_0-5_1-2
  6
CONTINUOUS
 62
    7
 10
114.22776
 20
168.68273
 11
113.81269
 21
169.88826
  0
LINE
  8
_0-5_1-2
  6
CONTINUOUS
 62
    7
 10
114.04814
 20
168.6209
 11
113.63305
 21
169.8264
  0
LINE
  8
_0-5_1-2
  6
CONTINUOUS
 62
    7
 10
113.81269
 20
169.88826
 11
113.63305
 21
169.8264
  0
LINE
  8
_0-5_1-2
  6
CONTINUOUS
 62
    7
 10
111.94891
 20
175.30135
 11
112.36405
 21
174.09582
  0
LINE
  8
_0-5_1-2
  6
CONTINUOUS
 62
    7
 10
64.781986
 20
158.70613
 11
111.67631
 21
174.85326
  0
LINE
  8
_0-5_1-2
  6
CONTINUOUS
 62
    7
 10
66.842836
 20
152.72104
 11
113.70977
 21
168.85861
  0
LINE
  8
_0-5_1-2
  6
CONTINUOUS
 62
    7
 10
152.86655
 20
185.47424
 11
112.25794
 21
174.40601
  0
LINE
  8
_0-5_1-2
  6
CONTINUOUS
 62
    7
 10
113.92014
 20
169.57213
 11
153.09184
 21
184.77587
  0
LINE
  8
_0-5_1-2
  6
CONTINUOUS
 62
    7
 10
157.82331
 20
187.45243
 11
112.09886
 21
174.98972
  0
LINE
  8
_0-5_1-2
  6
CONTINUOUS
 62
    7
 10
114.139
 20
169.00819
 11
158.14362
 21
186.08767
  0
LINE
  8
_0-5_1-2
  6
CONTINUOUS
 62
    7
 10
153.34591
 20
184.20349
 11
152.70693
 21
186.05942
  0
LINE
  8
_0-5_1-2
  6
CENTER1
 62
    7
 10
-5.469564
 20
130.46595
 11
159.05319
 21
187.11566
  0
LINE
  8
_0-5_1-2
  6
CONTINUOUS
 62
    7
 10
64.978976
 20
158.13419
 11
111.86641
 21
174.27878
  0
LINE
  8
_0-5_1-2
  6
CONTINUOUS
 62
    7
 10
66.645876
 20
153.29311
 11
113.55934
 21
169.44668
  0
LINE
  8
_0-5_1-2
  6
CONTINUOUS
 62
    7
 10
113.22926
 20
174.65425
 11
114.84392
 21
169.96482
  0
LINE
  8
_0-5_1-2
  6
CONTINUOUS
 62
    7
 10
150.8098
 20
183.89023
 11
150.48044
 21
184.84674
  0
LINE
  8
_0-5_1-2
  6
CONTINUOUS
 62
    7
 10
115.60003
 20
170.21988
 11
117.69968
 21
175.88462
  0
LINE
  8
_0-5_1-2
  6
CONTINUOUS
 62
    7
 10
115.27535
 20
170.1205
 11
117.37604
 21
175.78824
  0
LINE
  8
_0-5_1-2
  6
CONTINUOUS
 62
    7
 10
113.48458
 20
174.74219
 11
115.10429
 21
170.03811
  0
LINE
  8
_0-5_1-2
  6
CONTINUOUS
 62
    7
 10
118.38612
 20
176.05381
 11
123.19282
 21
173.23102
  0
LINE
  8
_0-5_1-2
  6
CONTINUOUS
 62
    7
 10
118.71764
 20
176.17219
 11
123.53551
 21
173.34289
  0
LINE
  8
_0-5_1-2
  6
CONTINUOUS
 62
    7
 10
124.61782
 20
173.68017
 11
126.83713
 21
178.39083
  0
LINE
  8
_0-5_1-2
  6
CONTINUOUS
 62
    7
 10
124.31024
 20
173.66097
 11
126.5088
 21
178.32749
  0
LINE
  8
_0-5_1-2
  6
CONTINUOUS
 62
    7
 10
127.69332
 20
178.61685
 11
132.01277
 21
176.62431
  0
LINE
  8
_0-5_1-2
  6
CONTINUOUS
 62
    7
 10
128.03984
 20
178.75437
 11
132.26794
 21
176.80395
  0
LINE
  8
_0-5_1-2
  6
CONTINUOUS
 62
    7
 10
133.57746
 20
177.23004
 11
135.8131
 21
180.80045
  0
LINE
  8
_0-5_1-2
  6
CONTINUOUS
 62
    7
 10
133.14305
 20
177.04496
 11
135.45516
 21
180.73736
  0
LINE
  8
_0-5_1-2
  6
CONTINUOUS
 62
    7
 10
137.11698
 20
181.16775
 11
140.80133
 21
180.04264
  0
LINE
  8
_0-5_1-2
  6
CONTINUOUS
 62
    7
 10
137.58034
 20
181.30855
 11
141.22562
 21
180.19541
  0
LINE
  8
_0-5_1-2
  6
CONTINUOUS
 62
    7
 10
142.79948
 20
180.78781
 11
144.95388
 21
183.28005
  0
LINE
  8
_0-5_1-2
  6
CONTINUOUS
 62
    7
 10
142.2456
 20
180.55979
 11
144.48793
 21
183.1539
  0
LINE
  8
_0-5_1-2
  6
CONTINUOUS
 62
    7
 10
146.74402
 20
183.79843
 11
149.44327
 21
183.37939
  0
LINE
  8
_0-5_1-2
  6
CONTINUOUS
 62
    7
 10
147.38628
 20
183.97199
 11
149.95636
 21
183.57297
  0
LINE
  8
_0-5_1-2
  6
CONTINUOUS
 62
    7
 10
12.455126
 20
139.26399
 11
17.137689
 21
136.49345
  0
LINE
  8
_0-5_1-2
  6
CONTINUOUS
 62
    7
 10
12.727507
 20
139.41654
 11
17.472413
 21
136.60923
  0
LINE
  8
_0-5_1-2
  6
CONTINUOUS
 62
    7
 10
6.877015
 20
133.8477
 11
-4.839099
 21
133.8477
  0
LINE
  8
_0-5_1-2
  6
CONTINUOUS
 62
    7
 10
6.877015
 20
133.58767
 11
-4.839099
 21
133.58767
  0
LINE
  8
_0-5_1-2
  6
CONTINUOUS
 62
    7
 10
-5.129396
 20
131.17616
 11
-5.571892
 21
130.95496
  0
LINE
  8
_0-5_1-2
  6
CONTINUOUS
 62
    7
 10
-5.107918
 20
133.57832
 11
-5.107918
 21
129.6201
  0
LINE
  8
_0-5_1-2
  6
CONTINUOUS
 62
    7
 10
-4.847908
 20
133.58894
 11
-4.847908
 21
129.61132
  0
LINE
  8
_0-5_1-2
  6
CONTINUOUS
 62
    7
 10
-5.223225
 20
130.02356
 11
-5.120327
 21
130.05014
  0
LINE
  8
_0-5_1-2
  6
CONTINUOUS
 62
    7
 10
0.979386
 20
133.55329
 11
-4.366242
 21
130.88118
  0
LINE
  8
_0-5_1-2
  6
CONTINUOUS
 62
    7
 10
-0.374382
 20
133.55301
 11
-4.823214
 21
131.32923
  0
LINE
  8
_0-5_1-2
  6
CONTINUOUS
 62
    7
 10
1.126328
 20
132.35582
 11
2.086185
 21
133.57728
  0
LINE
  8
_0-5_1-2
  6
CONTINUOUS
 62
    7
 10
2.333142
 20
133.89158
 11
2.777012
 21
134.45643
  0
LINE
  8
_0-5_1-2
  6
CONTINUOUS
 62
    7
 10
1.479041
 20
132.36762
 11
2.416517
 21
133.56069
  0
LINE
  8
_0-5_1-2
  6
CONTINUOUS
 62
    7
 10
2.658884
 20
133.86915
 11
3.277496
 21
134.65642
  0
LINE
  8
_0-5_1-2
  6
CONTINUOUS
 62
    7
 10
-4.413342
 20
130.85764
 11
6.115693
 21
133.57758
  0
LINE
  8
_0-5_1-2
  6
CONTINUOUS
 62
    7
 10
-4.834089
 20
130.12407
 11
6.863579
 21
133.14591
  0
LINE
  8
_0-5_1-2
  6
CONTINUOUS
 62
    7
 10
4.537051
 20
135.34098
 11
6.858334
 21
134.51166
  0
LINE
  8
_0-5_1-2
  6
CONTINUOUS
 62
    7
 10
7.145314
 20
134.40915
 11
8.03199
 21
134.09236
  0
LINE
  8
_0-5_1-2
  6
CONTINUOUS
 62
    7
 10
4.897695
 20
135.49885
 11
6.850416
 21
134.80122
  0
LINE
  8
_0-5_1-2
  6
CONTINUOUS
 62
    7
 10
7.148036
 20
134.69488
 11
8.454815
 21
134.22802
  0
LINE
  8
_0-5_1-2
  6
CONTINUOUS
 62
    7
 10
6.864161
 20
136.49487
 11
1.573811
 21
133.8504
  0
LINE
  8
_0-5_1-2
  6
CONTINUOUS
 62
    7
 10
6.858235
 20
137.16833
 11
0.208859
 21
133.84454
  0
LINE
  8
_0-5_1-2
  6
CONTINUOUS
 62
    7
 10
9.750336
 20
134.50947
 11
10.026467
 21
135.11561
  0
LINE
  8
_0-5_1-2
  6
CONTINUOUS
 62
    7
 10
10.650114
 20
136.48454
 11
11.730523
 21
138.85614
  0
LINE
  8
_0-5_1-2
  6
CONTINUOUS
 62
    7
 10
9.504641
 20
134.62145
 11
9.805218
 21
135.28125
  0
LINE
  8
_0-5_1-2
  6
CONTINUOUS
 62
    7
 10
10.438343
 20
136.671
 11
11.363891
 21
138.70263
  0
LINE
  8
_0-5_1-2
  6
CONTINUOUS
 62
    7
 10
17.337732
 20
141.73021
 11
9.526725
 21
137.8258
  0
LINE
  8
_0-5_1-2
  6
CONTINUOUS
 62
    7
 10
8.248748
 20
137.18698
 11
7.178162
 21
136.65182
  0
LINE
  8
_0-5_1-2
  6
CONTINUOUS
 62
    7
 10
17.139025
 20
142.30729
 11
9.101895
 21
138.28986
  0
LINE
  8
_0-5_1-2
  6
CONTINUOUS
 62
    7
 10
7.779849
 20
137.62903
 11
7.167745
 21
137.32305
  0
LINE
  8
_0-5_1-2
  6
CONTINUOUS
 62
    7
 10
7.150696
 20
133.22008
 11
10.841731
 21
134.17359
  0
LINE
  8
_0-5_1-2
  6
CONTINUOUS
 62
    7
 10
12.342627
 20
134.56132
 11
19.362631
 21
136.37479
  0
LINE
  8
_0-5_1-2
  6
CONTINUOUS
 62
    7
 10
7.166792
 20
133.84912
 11
10.372412
 21
134.6772
  0
LINE
  8
_0-5_1-2
  6
CONTINUOUS
 62
    7
 10
11.783376
 20
135.04168
 11
19.211371
 21
136.96055
  0
LINE
  8
_0-5_1-2
  6
CONTINUOUS
 62
    7
 10
-10.313025
 20
131.62201
 11
-17.121666
 21
157.05675
  0
LINE
  8
_0-5_1-2
  6
CONTINUOUS
 62
    7
 10
-17.987297
 20
160.29044
 11
-20.644454
 21
170.21661
  0
LINE
  8
_0-5_1-2
  6
CONTINUOUS
 62
    7
 10
-15.839111
 20
131.88984
 11
-17.063344
 21
141.63276
  0
LINE
  8
_0-5_1-2
  6
CONTINUOUS
 62
    7
 10
-17.999941
 20
149.0866
 11
-20.673924
 21
170.36725
  0
LINE
  8
_0-5_1-2
  6
CONTINUOUS
 62
    7
 10
-19.660534
 20
171.62781
 11
158.63524
 21
187.99227
  0
LINE
  8
_0-5_1-2
  6
CONTINUOUS
 62
    7
 10
158.83346
 20
186.00216
 11
-15.711927
 21
167.25159
  0
LINE
  8
_0-5_1-2
  6
CONTINUOUS
 62
    7
 10
154.50529
 20
186.81047
 11
-17.671539
 21
169.304
  0
LINE
  8
_0-5_1-2
  6
CENTER1
 62
    7
 10
158.86523
 20
186.60371
 11
158.5883
 21
187.40809
  0
LINE
  8
_0-5_1-2
  6
CONTINUOUS
 62
    7
 10
158.95176
 20
177.18667
 11
158.95176
 21
176.99666
  0
LINE
  8
_0-5_1-2
  6
CONTINUOUS
 62
    7
 10
158.95176
 20
176.99666
 11
160.3518
 21
176.99666
  0
LINE
  8
_0-5_1-2
  6
CONTINUOUS
 62
    7
 10
159.85177
 20
177.74667
 11
159.85177
 21
177.18667
  0
LINE
  8
_0-5_1-2
  6
CONTINUOUS
 62
    7
 10
158.95176
 20
177.18667
 11
160.3518
 21
177.18667
  0
LINE
  8
_0-5_1-2
  6
CONTINUOUS
 62
    7
 10
160.3518
 20
177.18667
 11
160.3518
 21
176.99666
  0
LINE
  8
_0-5_1-2
  6
CONTINUOUS
 62
    7
 10
159.3518
 20
177.74667
 11
159.85177
 21
177.74667
  0
LINE
  8
_0-5_1-2
  6
CONTINUOUS
 62
    7
 10
159.3518
 20
177.74667
 11
159.3518
 21
177.18667
  0
LINE
  8
_0-5_1-2
  6
CONTINUOUS
 62
    7
 10
159.65177
 20
186.65542
 11
159.65177
 21
177.7517
  0
LINE
  8
_0-5_1-2
  6
CONTINUOUS
 62
    7
 10
159.39144
 20
177.75402
 11
153.82533
 21
184.38595
  0
LINE
  8
_0-5_1-2
  6
CONTINUOUS
 62
    7
 10
159.57177
 20
153.48712
 11
159.73174
 21
153.48712
  0
LINE
  8
_0-5_1-2
  6
CENTER1
 62
    7
 10
159.57177
 20
153.13711
 11
159.73174
 21
153.13711
  0
LINE
  8
_0-5_1-2
  6
CONTINUOUS
 62
    7
 10
159.57177
 20
153.48712
 11
159.57177
 21
152.79831
  0
LINE
  8
_0-5_1-2
  6
CONTINUOUS
 62
    7
 10
159.73174
 20
153.48712
 11
159.73174
 21
152.79831
  0
LINE
  8
_0-5_1-2
  6
CONTINUOUS
 62
    7
 10
159.17676
 20
146.42713
 11
160.12678
 21
146.42713
  0
LINE
  8
_0-5_1-2
  6
CONTINUOUS
 62
    7
 10
159.17676
 20
146.39783
 11
159.24748
 21
146.32711
  0
LINE
  8
_0-5_1-2
  6
CONTINUOUS
 62
    7
 10
160.05604
 20
146.32711
 11
159.24748
 21
146.32711
  0
LINE
  8
_0-5_1-2
  6
CONTINUOUS
 62
    7
 10
160.05604
 20
146.32711
 11
160.12678
 21
146.39783
  0
LINE
  8
_0-5_1-2
  6
CONTINUOUS
 62
    7
 10
159.17676
 20
147.12884
 11
159.17676
 21
146.39783
  0
LINE
  8
_0-5_1-2
  6
CONTINUOUS
 62
    7
 10
159.20504
 20
147.15712
 11
159.17676
 21
147.12884
  0
LINE
  8
_0-5_1-2
  6
CONTINUOUS
 62
    7
 10
160.12678
 20
147.12884
 11
160.12678
 21
146.39783
  0
LINE
  8
_0-5_1-2
  6
CONTINUOUS
 62
    7
 10
160.0985
 20
147.15712
 11
160.12678
 21
147.12884
  0
LINE
  8
_0-5_1-2
  6
CONTINUOUS
 62
    7
 10
160.1299
 20
147.11711
 11
159.18188
 21
147.11711
  0
LINE
  8
_0-5_1-2
  6
CONTINUOUS
 62
    7
 10
159.17676
 20
147.18541
 11
159.20504
 21
147.15712
  0
LINE
  8
_0-5_1-2
  6
CONTINUOUS
 62
    7
 10
160.0985
 20
147.15712
 11
159.20504
 21
147.15712
  0
LINE
  8
_0-5_1-2
  6
CONTINUOUS
 62
    7
 10
160.0985
 20
147.15712
 11
160.12678
 21
147.18541
  0
LINE
  8
_0-5_1-2
  6
CONTINUOUS
 62
    7
 10
160.12433
 20
147.11711
 11
160.12678
 21
147.11711
  0
LINE
  8
_0-5_1-2
  6
CONTINUOUS
 62
    7
 10
159.17676
 20
152.75883
 11
159.17676
 21
147.18541
  0
LINE
  8
_0-5_1-2
  6
CONTINUOUS
 62
    7
 10
159.20504
 20
152.78711
 11
159.17676
 21
152.75883
  0
LINE
  8
_0-5_1-2
  6
CONTINUOUS
 62
    7
 10
160.0985
 20
152.78711
 11
159.20504
 21
152.78711
  0
LINE
  8
_0-5_1-2
  6
CONTINUOUS
 62
    7
 10
160.12678
 20
152.75883
 11
160.12678
 21
147.18541
  0
LINE
  8
_0-5_1-2
  6
CONTINUOUS
 62
    7
 10
160.0985
 20
152.78711
 11
160.12678
 21
152.75883
  0
LINE
  8
_0-5_1-2
  6
CONTINUOUS
 62
    7
 10
159.50177
 20
146.32256
 11
159.50177
 21
146.23712
  0
LINE
  8
_0-5_1-2
  6
CONTINUOUS
 62
    7
 10
159.80174
 20
146.23712
 11
159.50177
 21
146.23712
  0
LINE
  8
_0-5_1-2
  6
CONTINUOUS
 62
    7
 10
159.80174
 20
146.32256
 11
159.80174
 21
146.23712
  0
LINE
  8
_0-5_1-2
  6
CONTINUOUS
 62
    7
 10
159.65177
 20
176.98592
 11
159.65177
 21
153.53203
  0
LINE
  8
_0-5_1-2
  6
CONTINUOUS
 62
    7
 10
159.45092
 20
145.45016
 11
159.443
 21
145.49385
  0
LINE
  8
_0-5_1-2
  6
CONTINUOUS
 62
    7
 10
159.443
 20
145.49385
 11
159.42477
 21
145.56735
  0
LINE
  8
_0-5_1-2
  6
CONTINUOUS
 62
    7
 10
159.42477
 20
145.56735
 11
159.39406
 21
145.63577
  0
LINE
  8
_0-5_1-2
  6
CONTINUOUS
 62
    7
 10
159.39406
 20
145.63577
 11
159.34284
 21
145.69587
  0
LINE
  8
_0-5_1-2
  6
CONTINUOUS
 62
    7
 10
159.34284
 20
145.69587
 11
159.30065
 21
145.72566
  0
LINE
  8
_0-5_1-2
  6
CONTINUOUS
 62
    7
 10
159.30065
 20
145.72566
 11
159.26341
 21
145.74452
  0
LINE
  8
_0-5_1-2
  6
CONTINUOUS
 62
    7
 10
159.26341
 20
145.74452
 11
159.19346
 21
145.76836
  0
LINE
  8
_0-5_1-2
  6
CONTINUOUS
 62
    7
 10
159.19346
 20
145.76836
 11
159.12876
 21
145.77683
  0
LINE
  8
_0-5_1-2
  6
CONTINUOUS
 62
    7
 10
159.12876
 20
145.77683
 11
159.0836
 21
145.76463
  0
LINE
  8
_0-5_1-2
  6
CONTINUOUS
 62
    7
 10
159.0836
 20
145.76463
 11
159.07212
 21
145.74601
  0
LINE
  8
_0-5_1-2
  6
CONTINUOUS
 62
    7
 10
159.07212
 20
145.74601
 11
159.07128
 21
145.7364
  0
LINE
  8
_0-5_1-2
  6
CONTINUOUS
 62
    7
 10
159.07128
 20
145.7364
 11
159.07397
 21
145.71722
  0
LINE
  8
_0-5_1-2
  6
CONTINUOUS
 62
    7
 10
159.07397
 20
145.71722
 11
159.08093
 21
145.69597
  0
LINE
  8
_0-5_1-2
  6
CONTINUOUS
 62
    7
 10
159.08093
 20
145.69597
 11
159.0907
 21
145.67399
  0
LINE
  8
_0-5_1-2
  6
CONTINUOUS
 62
    7
 10
159.0907
 20
145.67399
 11
159.09713
 21
145.6615
  0
LINE
  8
_0-5_1-2
  6
CONTINUOUS
 62
    7
 10
159.09713
 20
145.6615
 11
159.11205
 21
145.63578
  0
LINE
  8
_0-5_1-2
  6
CONTINUOUS
 62
    7
 10
159.11205
 20
145.63578
 11
159.1387
 21
145.59533
  0
LINE
  8
_0-5_1-2
  6
CONTINUOUS
 62
    7
 10
159.1387
 20
145.59533
 11
159.16362
 21
145.55713
  0
LINE
  8
_0-5_1-2
  6
CONTINUOUS
 62
    7
 10
159.16362
 20
145.55713
 11
159.18334
 21
145.51816
  0
LINE
  8
_0-5_1-2
  6
CONTINUOUS
 62
    7
 10
159.18334
 20
145.51816
 11
159.19109
 21
145.49401
  0
LINE
  8
_0-5_1-2
  6
CONTINUOUS
 62
    7
 10
159.19109
 20
145.49401
 11
159.19302
 21
145.48507
  0
LINE
  8
_0-5_1-2
  6
CONTINUOUS
 62
    7
 10
159.19302
 20
145.48507
 11
159.19551
 21
145.46919
  0
LINE
  8
_0-5_1-2
  6
CONTINUOUS
 62
    7
 10
159.19551
 20
145.46919
 11
159.19717
 21
145.45291
  0
LINE
  8
_0-5_1-2
  6
CONTINUOUS
 62
    7
 10
159.19717
 20
145.45291
 11
159.19834
 21
145.43635
  0
LINE
  8
_0-5_1-2
  6
CONTINUOUS
 62
    7
 10
159.19834
 20
145.43635
 11
159.1989
 21
145.42667
  0
LINE
  8
_0-5_1-2
  6
CONTINUOUS
 62
    7
 10
159.30226
 20
146.09746
 11
159.33623
 21
146.09746
  0
LINE
  8
_0-5_1-2
  6
CONTINUOUS
 62
    7
 10
159.33487
 20
145.72478
 11
159.29897
 21
145.72478
  0
LINE
  8
_0-5_1-2
  6
CONTINUOUS
 62
    7
 10
159.37469
 20
145.76102
 11
159.40059
 21
146.03425
  0
LINE
  8
_0-5_1-2
  6
CONTINUOUS
 62
    7
 10
159.50182
 20
146.23306
 11
159.50568
 21
146.21359
  0
LINE
  8
_0-5_1-2
  6
CONTINUOUS
 62
    7
 10
159.50568
 20
146.21359
 11
159.51249
 21
146.18008
  0
LINE
  8
_0-5_1-2
  6
CONTINUOUS
 62
    7
 10
159.51249
 20
146.18008
 11
159.51991
 21
146.14675
  0
LINE
  8
_0-5_1-2
  6
CONTINUOUS
 62
    7
 10
159.51991
 20
146.14675
 11
159.52827
 21
146.11374
  0
LINE
  8
_0-5_1-2
  6
CONTINUOUS
 62
    7
 10
159.52827
 20
146.11374
 11
159.53377
 21
146.09475
  0
LINE
  8
_0-5_1-2
  6
CONTINUOUS
 62
    7
 10
159.53377
 20
146.09475
 11
159.54354
 21
146.06485
  0
LINE
  8
_0-5_1-2
  6
CONTINUOUS
 62
    7
 10
159.54354
 20
146.06485
 11
159.56306
 21
146.01414
  0
LINE
  8
_0-5_1-2
  6
CONTINUOUS
 62
    7
 10
159.56306
 20
146.01414
 11
159.58536
 21
145.9644
  0
LINE
  8
_0-5_1-2
  6
CONTINUOUS
 62
    7
 10
159.58536
 20
145.9644
 11
159.60956
 21
145.91545
  0
LINE
  8
_0-5_1-2
  6
CONTINUOUS
 62
    7
 10
159.60956
 20
145.91545
 11
159.62418
 21
145.88731
  0
LINE
  8
_0-5_1-2
  6
CONTINUOUS
 62
    7
 10
159.62418
 20
145.88731
 11
159.64756
 21
145.84354
  0
LINE
  8
_0-5_1-2
  6
CONTINUOUS
 62
    7
 10
159.64756
 20
145.84354
 11
159.68903
 21
145.76884
  0
LINE
  8
_0-5_1-2
  6
CONTINUOUS
 62
    7
 10
159.68903
 20
145.76884
 11
159.73149
 21
145.69488
  0
LINE
  8
_0-5_1-2
  6
CONTINUOUS
 62
    7
 10
159.73149
 20
145.69488
 11
159.77457
 21
145.62136
  0
LINE
  8
_0-5_1-2
  6
CONTINUOUS
 62
    7
 10
159.77457
 20
145.62136
 11
159.79966
 21
145.57882
  0
LINE
  8
_0-5_1-2
  6
CONTINUOUS
 62
    7
 10
159.79439
 20
146.23306
 11
159.79937
 21
146.21277
  0
LINE
  8
_0-5_1-2
  6
CONTINUOUS
 62
    7
 10
159.79937
 20
146.21277
 11
159.80855
 21
146.1781
  0
LINE
  8
_0-5_1-2
  6
CONTINUOUS
 62
    7
 10
159.80855
 20
146.1781
 11
159.81936
 21
146.14445
  0
LINE
  8
_0-5_1-2
  6
CONTINUOUS
 62
    7
 10
159.81936
 20
146.14445
 11
159.83285
 21
146.11238
  0
LINE
  8
_0-5_1-2
  6
CONTINUOUS
 62
    7
 10
159.83285
 20
146.11238
 11
159.84225
 21
146.09475
  0
LINE
  8
_0-5_1-2
  6
CONTINUOUS
 62
    7
 10
159.84225
 20
146.09475
 11
159.85734
 21
146.07213
  0
LINE
  8
_0-5_1-2
  6
CONTINUOUS
 62
    7
 10
159.85734
 20
146.07213
 11
159.88845
 21
146.0363
  0
LINE
  8
_0-5_1-2
  6
CONTINUOUS
 62
    7
 10
159.88845
 20
146.0363
 11
159.92435
 21
146.00373
  0
LINE
  8
_0-5_1-2
  6
CONTINUOUS
 62
    7
 10
159.92435
 20
146.00373
 11
159.96297
 21
145.97342
  0
LINE
  8
_0-5_1-2
  6
CONTINUOUS
 62
    7
 10
159.96297
 20
145.97342
 11
159.98584
 21
145.95647
  0
LINE
  8
_0-5_1-2
  6
CONTINUOUS
 62
    7
 10
159.98584
 20
145.95647
 11
160.00667
 21
145.94121
  0
LINE
  8
_0-5_1-2
  6
CONTINUOUS
 62
    7
 10
160.00667
 20
145.94121
 11
160.04211
 21
145.91505
  0
LINE
  8
_0-5_1-2
  6
CONTINUOUS
 62
    7
 10
160.04211
 20
145.91505
 11
160.07677
 21
145.88857
  0
LINE
  8
_0-5_1-2
  6
CONTINUOUS
 62
    7
 10
160.07677
 20
145.88857
 11
160.1105
 21
145.86123
  0
LINE
  8
_0-5_1-2
  6
CONTINUOUS
 62
    7
 10
160.1105
 20
145.86123
 11
160.12948
 21
145.84478
  0
LINE
  8
_0-5_1-2
  6
CONTINUOUS
 62
    7
 10
160.12948
 20
145.84478
 11
160.14984
 21
145.8261
  0
LINE
  8
_0-5_1-2
  6
CONTINUOUS
 62
    7
 10
160.14984
 20
145.8261
 11
160.18381
 21
145.79252
  0
LINE
  8
_0-5_1-2
  6
CONTINUOUS
 62
    7
 10
160.18381
 20
145.79252
 11
160.2168
 21
145.75765
  0
LINE
  8
_0-5_1-2
  6
CONTINUOUS
 62
    7
 10
160.2168
 20
145.75765
 11
160.24916
 21
145.722
  0
LINE
  8
_0-5_1-2
  6
CONTINUOUS
 62
    7
 10
160.24916
 20
145.722
 11
160.26777
 21
145.70116
  0
LINE
  8
_0-5_1-2
  6
CONTINUOUS
 62
    7
 10
159.50479
 20
146.20906
 11
159.37726
 21
146.15779
  0
LINE
  8
_0-5_1-2
  6
CONTINUOUS
 62
    7
 10
159.55544
 20
146.03439
 11
159.40233
 21
146.03251
  0
LINE
  8
_0-5_1-2
  6
CONTINUOUS
 62
    7
 10
159.30172
 20
146.09712
 11
159.30172
 21
145.72419
  0
LINE
  8
_0-5_1-2
  6
CONTINUOUS
 62
    7
 10
6.611785
 20
88.468111
 11
6.611785
 21
88.286971
  0
LINE
  8
_0-5_1-2
  6
CONTINUOUS
 62
    7
 10
6.611785
 20
87.725271
 11
6.611785
 21
80.064741
  0
LINE
  8
_0-5_1-2
  6
CONTINUOUS
 62
    7
 10
7.111786
 20
88.468111
 11
7.111786
 21
88.286971
  0
LINE
  8
_0-5_1-2
  6
CONTINUOUS
 62
    7
 10
7.111786
 20
87.786961
 11
7.111786
 21
80.066381
  0
LINE
  8
_0-5_1-2
  6
CONTINUOUS
 62
    7
 10
7.601791
 20
92.107691
 11
7.601791
 21
88.286971
  0
LINE
  8
_0-5_1-2
  6
CONTINUOUS
 62
    7
 10
7.601791
 20
87.786961
 11
7.601791
 21
79.104021
  0
LINE
  8
_0-5_1-2
  6
CONTINUOUS
 62
    7
 10
8.063836
 20
79.070541
 11
8.063836
 21
87.786961
  0
LINE
  8
_0-5_1-2
  6
CONTINUOUS
 62
    7
 10
8.063836
 20
88.286971
 11
8.063836
 21
92.066341
  0
LINE
  8
_0-5_1-2
  6
CONTINUOUS
 62
    7
 10
11.239738
 20
79.070541
 11
11.239738
 21
87.786961
  0
LINE
  8
_0-5_1-2
  6
CONTINUOUS
 62
    7
 10
11.239738
 20
88.286971
 11
11.239738
 21
92.149041
  0
LINE
  8
_0-5_1-2
  6
CONTINUOUS
 62
    7
 10
11.701795
 20
92.066341
 11
11.701795
 21
88.286971
  0
LINE
  8
_0-5_1-2
  6
CONTINUOUS
 62
    7
 10
11.701795
 20
87.786961
 11
11.701795
 21
79.104021
  0
LINE
  8
_0-5_1-2
  6
CONTINUOUS
 62
    7
 10
12.191788
 20
92.066341
 11
12.191788
 21
88.286971
  0
LINE
  8
_0-5_1-2
  6
CONTINUOUS
 62
    7
 10
12.191788
 20
87.786961
 11
12.191788
 21
79.165721
  0
LINE
  8
_0-5_1-2
  6
CONTINUOUS
 62
    7
 10
7.111786
 20
94.249941
 11
7.111786
 21
96.446961
  0
LINE
  8
_0-5_1-2
  6
CONTINUOUS
 62
    7
 10
7.111786
 20
96.786961
 11
7.111786
 21
98.250201
  0
LINE
  8
_0-5_1-2
  6
CONTINUOUS
 62
    7
 10
8.063836
 20
96.407421
 11
8.063836
 21
94.251881
  0
LINE
  8
_0-5_1-2
  6
CONTINUOUS
 62
    7
 10
8.063836
 20
99.496261
 11
8.063836
 21
96.786961
  0
LINE
  8
_0-5_1-2
  6
CONTINUOUS
 62
    7
 10
17.606111
 20
222.28975
 11
19.373871
 21
220.52197
  0
LINE
  8
_0-5_1-2
  6
CONTINUOUS
 62
    7
 10
19.373871
 20
204.61208
 11
17.606111
 21
202.84432
  0
LINE
  8
_0-5_1-2
  6
DASHED1
 62
    4
 10
17.049718
 20
203.41222
 11
18.786152
 21
205.14868
  0
LINE
  8
_0-5_1-2
  6
DASHED1
 62
    4
 10
17.104402
 20
203.33962
 11
18.849793
 21
205.08504
  0
LINE
  8
_0-5_1-2
  6
DASHED1
 62
    4
 10
17.116626
 20
221.7822
 11
18.884187
 21
220.01464
  0
LINE
  8
_0-5_1-2
  6
DASHED1
 62
    4
 10
17.052984
 20
221.71856
 11
18.820546
 21
219.951
  0
LINE
  8
_0-5_1-2
  6
CENTER1
 62
    4
 10
0.356364
 20
221.86183
 11
18.983336
 21
203.23483
  0
LINE
  8
_0-5_1-2
  6
CENTER1
 62
    4
 10
0.28468
 20
203.20056
 11
18.835343
 21
221.7512
  0
LINE
  8
_0-5_1-2
  6
CONTINUOUS
 62
    7
 10
6.151182
 20
210.81688
 11
6.151182
 21
214.32984
  0
LINE
  8
_0-5_1-2
  6
CONTINUOUS
 62
    7
 10
7.922851
 20
209.06699
 11
11.408115
 21
209.06699
  0
LINE
  8
_0-5_1-2
  6
CONTINUOUS
 62
    7
 10
7.922851
 20
216.06699
 11
11.380451
 21
216.06699
  0
LINE
  8
_0-5_1-2
  6
CONTINUOUS
 62
    7
 10
12.689333
 20
213.83743
 11
12.934621
 21
214.08274
  0
LINE
  8
_0-5_1-2
  6
CONTINUOUS
 62
    7
 10
12.6805
 20
211.30545
 11
12.833814
 21
211.15214
  0
LINE
  8
_0-5_1-2
  6
CONTINUOUS
 62
    7
 10
10.897399
 20
209.55303
 11
11.234709
 21
209.21575
  0
LINE
  8
_0-5_1-2
  6
CONTINUOUS
 62
    7
 10
7.064531
 20
213.3859
 11
10.391484
 21
210.05897
  0
LINE
  8
_0-5_1-2
  6
CONTINUOUS
 62
    7
 10
15.401113
 20
207.76189
 11
15.401113
 21
207.57193
  0
LINE
  8
_0-5_1-2
  6
CONTINUOUS
 62
    7
 10
15.401113
 20
217.56189
 11
15.401113
 21
217.37191
  0
LINE
  8
_0-5_1-2
  6
CONTINUOUS
 62
    7
 10
7.151123
 20
207.31695
 11
7.151123
 21
202.11692
  0
LINE
  8
_0-5_1-2
  6
CONTINUOUS
 62
    7
 10
-17.648892
 20
202.11692
 11
7.151123
 21
202.11692
  0
LINE
  8
_0-5_1-2
  6
CONTINUOUS
 62
    7
 10
-19.648886
 20
217.81691
 11
14.945898
 21
217.81691
  0
LINE
  8
_0-5_1-2
  6
CONTINUOUS
 62
    7
 10
13.745889
 20
217.56189
 11
15.401113
 21
217.56189
  0
LINE
  8
_0-5_1-2
  6
CONTINUOUS
 62
    7
 10
13.745889
 20
217.37191
 11
15.401113
 21
217.37191
  0
LINE
  8
_0-5_1-2
  6
CONTINUOUS
 62
    7
 10
15.401113
 20
207.57193
 11
13.745889
 21
207.57193
  0
LINE
  8
_0-5_1-2
  6
CONTINUOUS
 62
    7
 10
14.945898
 20
217.81691
 11
14.945898
 21
217.58906
  0
LINE
  8
_0-5_1-2
  6
CONTINUOUS
 62
    7
 10
14.945898
 20
207.57686
 11
14.945898
 21
207.31695
  0
LINE
  8
_0-5_1-2
  6
CONTINUOUS
 62
    7
 10
-18.008641
 20
217.56189
 11
-18.008641
 21
217.37191
  0
LINE
  8
_0-5_1-2
  6
CONTINUOUS
 62
    7
 10
-18.008641
 20
217.37191
 11
-16.808636
 21
217.37191
  0
LINE
  8
_0-5_1-2
  6
CONTINUOUS
 62
    7
 10
-18.008641
 20
217.56189
 11
-16.808636
 21
217.56189
  0
LINE
  8
_0-5_1-2
  6
CONTINUOUS
 62
    7
 10
-16.808636
 20
217.37191
 11
-16.808636
 21
217.56189
  0
LINE
  8
_0-5_1-2
  6
CONTINUOUS
 62
    7
 10
-16.808636
 20
207.57193
 11
-16.808636
 21
207.76189
  0
LINE
  8
_0-5_1-2
  6
CONTINUOUS
 62
    7
 10
-16.808636
 20
207.57193
 11
-18.008641
 21
207.57193
  0
LINE
  8
_0-5_1-2
  6
CONTINUOUS
 62
    7
 10
-16.808636
 20
207.76189
 11
-18.008641
 21
207.76189
  0
LINE
  8
_0-5_1-2
  6
CONTINUOUS
 62
    7
 10
-18.008641
 20
207.76189
 11
-18.008641
 21
207.57193
  0
LINE
  8
_0-5_1-2
  6
CONTINUOUS
 62
    7
 10
-17.648892
 20
207.5726
 11
-17.648892
 21
202.11692
  0
LINE
  8
_0-5_1-2
  6
CONTINUOUS
 62
    7
 10
13.745889
 20
217.56189
 11
13.745889
 21
216.58089
  0
LINE
  8
_0-5_1-2
  6
CONTINUOUS
 62
    7
 10
15.401113
 20
207.76189
 11
13.745889
 21
207.76189
  0
LINE
  8
_0-5_1-2
  6
CONTINUOUS
 62
    7
 10
13.745889
 20
208.60076
 11
13.745889
 21
207.57193
  0
LINE
  8
_0-5_1-2
  6
CONTINUOUS
 62
    7
 10
-17.622181
 20
207.31695
 11
14.945898
 21
207.31695
  0
LINE
  8
_0-5_1-2
  6
CONTINUOUS
 62
    7
 10
-17.648892
 20
217.83794
 11
-17.648892
 21
217.58681
  0
LINE
  8
_0-5_1-2
  6
CONTINUOUS
 62
    7
 10
-17.648892
 20
217.33568
 11
-17.648892
 21
207.76501
  0
LINE
  8
_0-5_1-2
  6
CONTINUOUS
 62
    7
 10
-19.648886
 20
217.81691
 11
-19.648886
 21
214.5169
  0
LINE
  8
_0-5_1-2
  6
CONTINUOUS
 62
    7
 10
-19.648886
 20
214.5169
 11
-17.563921
 21
214.5169
  0
LINE
  8
_0-5_1-2
  6
CONTINUOUS
 62
    7
 10
-17.613805
 20
208.51693
 11
14.945898
 21
208.51693
  0
LINE
  8
_0-5_1-2
  6
CONTINUOUS
 62
    7
 10
-17.664032
 20
216.61692
 11
14.945898
 21
216.61692
  0
LINE
  8
_0-5_1-2
  6
CENTER1
 62
    4
 10
9.651107
 20
219.13009
 11
9.651107
 21
205.63119
  0
LINE
  8
_0-5_1-2
  6
CONTINUOUS
 62
    7
 10
13.18571
 20
217.86936
 11
17.606111
 21
222.28975
  0
LINE
  8
_0-5_1-2
  6
CONTINUOUS
 62
    7
 10
12.706085
 20
213.85418
 11
13.508297
 21
214.65638
  0
LINE
  8
_0-5_1-2
  6
CONTINUOUS
 62
    7
 10
15.062962
 20
216.21107
 11
19.373871
 21
220.52197
  0
LINE
  8
_0-5_1-2
  6
CONTINUOUS
 62
    7
 10
12.688888
 20
211.29706
 11
13.468831
 21
210.51713
  0
LINE
  8
_0-5_1-2
  6
CONTINUOUS
 62
    7
 10
14.957812
 20
209.02814
 11
19.373871
 21
204.61208
  0
LINE
  8
_0-5_1-2
  6
CONTINUOUS
 62
    7
 10
10.928057
 20
209.52235
 11
11.876234
 21
208.57419
  0
LINE
  8
_0-5_1-2
  6
CONTINUOUS
 62
    7
 10
13.19004
 20
207.26038
 11
17.606111
 21
202.84432
  0
LINE
  8
_0-5_1-2
  6
CONTINUOUS
 62
    7
 10
7.420969
 20
208.56909
 11
8.396475
 21
209.5446
  0
LINE
  8
_0-5_1-2
  6
CONTINUOUS
 62
    7
 10
5.806498
 20
210.49011
 11
6.598058
 21
211.28167
  0
LINE
  8
_0-5_1-2
  6
CONTINUOUS
 62
    7
 10
-2.348896
 20
222.06693
 11
13.75111
 21
222.06693
  0
LINE
  8
_0-5_1-2
  6
CONTINUOUS
 62
    7
 10
-2.348896
 20
222.06693
 11
-2.348896
 21
217.88958
  0
LINE
  8
_0-5_1-2
  6
CONTINUOUS
 62
    7
 10
7.285755
 20
203.06692
 11
13.75111
 21
203.06692
  0
LINE
  8
_0-5_1-2
  6
CONTINUOUS
 62
    7
 10
13.75111
 20
222.06693
 11
13.75111
 21
217.88958
  0
LINE
  8
_0-5_1-2
  6
CONTINUOUS
 62
    7
 10
13.75111
 20
207.29381
 11
13.75111
 21
203.06692
  0
LINE
  8
_0-5_1-2
  6
CONTINUOUS
 62
    7
 10
1.696201
 20
222.28985
 11
1.466725
 21
222.06037
  0
LINE
  8
_0-5_1-2
  6
CONTINUOUS
 62
    7
 10
1.696201
 20
222.28985
 11
1.864151
 21
222.12191
  0
LINE
  8
_0-5_1-2
  6
CENTER1
 62
    4
 10
-5.348893
 20
219.13009
 11
-5.348893
 21
205.63119
  0
LINE
  8
_0-5_1-2
  6
CONTINUOUS
 62
    7
 10
-5.822864
 20
216.36691
 11
-4.874861
 21
216.36691
  0
LINE
  8
_0-5_1-2
  6
CONTINUOUS
 62
    7
 10
-5.822864
 20
216.36691
 11
-5.822864
 21
215.86693
  0
LINE
  8
_0-5_1-2
  6
CONTINUOUS
 62
    7
 10
-5.822864
 20
215.86693
 11
-4.874861
 21
215.86693
  0
LINE
  8
_0-5_1-2
  6
CENTER1
 62
    4
 10
-5.729481
 20
216.1169
 11
-3.223187
 21
216.1169
  0
LINE
  8
_0-5_1-2
  6
CONTINUOUS
 62
    7
 10
-4.888754
 20
216.20192
 11
-0.608862
 21
216.20192
  0
LINE
  8
_0-5_1-2
  6
CONTINUOUS
 62
    7
 10
-4.874861
 20
216.36691
 11
-4.874861
 21
212.57237
  0
LINE
  8
_0-5_1-2
  6
CONTINUOUS
 62
    7
 10
-4.694737
 20
216.03192
 11
-0.788973
 21
216.03192
  0
LINE
  8
_0-5_1-2
  6
CONTINUOUS
 62
    7
 10
-4.694737
 20
216.03192
 11
-4.694737
 21
212.57237
  0
LINE
  8
_0-5_1-2
  6
CONTINUOUS
 62
    7
 10
-0.788973
 20
212.46552
 11
-0.788973
 21
216.03192
  0
LINE
  8
_0-5_1-2
  6
CONTINUOUS
 62
    7
 10
11.718664
 20
214.04649
 11
8.494288
 21
215.55818
  0
LINE
  8
_0-5_1-2
  6
CONTINUOUS
 62
    7
 10
8.522187
 20
212.54015
 11
8.522187
 21
213.86514
  0
LINE
  8
_0-5_1-2
  6
CONTINUOUS
 62
    7
 10
13.588394
 20
213.86514
 11
16.77047
 21
215.54348
  0
LINE
  8
_0-5_1-2
  6
CONTINUOUS
 62
    7
 10
12.91151
 20
213.12903
 11
12.91151
 21
212.61379
  0
LINE
  8
_0-5_1-2
  6
CONTINUOUS
 62
    7
 10
4.261979
 20
214.67484
 11
4.261979
 21
212.68738
  0
LINE
  8
_0-5_1-2
  6
CONTINUOUS
 62
    7
 10
-0.608862
 20
212.61379
 11
-0.608862
 21
216.20192
  0
LINE
  8
_0-5_1-2
  6
CONTINUOUS
 62
    7
 10
18.171016
 20
213.31689
 11
18.531252
 21
213.31689
  0
LINE
  8
_0-5_1-2
  6
CONTINUOUS
 62
    7
 10
18.171016
 20
211.81694
 11
18.531252
 21
211.81694
  0
LINE
  8
_0-5_1-2
  6
CONTINUOUS
 62
    7
 10
18.171016
 20
211.81694
 11
18.171016
 21
213.31689
  0
LINE
  8
_0-5_1-2
  6
CONTINUOUS
 62
    7
 10
18.35114
 20
213.31986
 11
18.35114
 21
211.83569
  0
LINE
  8
_0-5_1-2
  6
DASHED1
 62
    7
 10
18.469627
 20
215.73703
 11
18.469627
 21
215.35535
  0
LINE
  8
_0-5_1-2
  6
DASHED1
 62
    7
 10
18.232641
 20
215.73703
 11
18.232641
 21
215.35535
  0
LINE
  8
_0-5_1-2
  6
CONTINUOUS
 62
    7
 10
-0.609134
 20
216.19613
 11
17.877132
 21
215.92424
  0
LINE
  8
_0-5_1-2
  6
CONTINUOUS
 62
    7
 10
17.877132
 20
215.22418
 11
17.877132
 21
215.92424
  0
LINE
  8
_0-5_1-2
  6
CONTINUOUS
 62
    7
 10
17.868632
 20
215.6619
 11
18.825136
 21
215.6619
  0
LINE
  8
_0-5_1-2
  6
CONTINUOUS
 62
    7
 10
17.868632
 20
215.47192
 11
18.825136
 21
215.47192
  0
LINE
  8
_0-5_1-2
  6
CONTINUOUS
 62
    7
 10
-5.822864
 20
208.76694
 11
-4.874861
 21
208.76694
  0
LINE
  8
_0-5_1-2
  6
CONTINUOUS
 62
    7
 10
-5.822864
 20
208.76694
 11
-5.822864
 21
209.26692
  0
LINE
  8
_0-5_1-2
  6
CONTINUOUS
 62
    7
 10
-5.822864
 20
209.26692
 11
-4.874861
 21
209.26692
  0
LINE
  8
_0-5_1-2
  6
CENTER1
 62
    4
 10
-5.729481
 20
209.01696
 11
-3.223187
 21
209.01696
  0
LINE
  8
_0-5_1-2
  6
CONTINUOUS
 62
    7
 10
-4.888754
 20
208.93194
 11
-0.608862
 21
208.93194
  0
LINE
  8
_0-5_1-2
  6
CONTINUOUS
 62
    7
 10
-4.874861
 20
208.76694
 11
-4.874861
 21
212.56148
  0
LINE
  8
_0-5_1-2
  6
CONTINUOUS
 62
    7
 10
-4.694737
 20
209.10193
 11
-0.788973
 21
209.10193
  0
LINE
  8
_0-5_1-2
  6
CONTINUOUS
 62
    7
 10
-4.694737
 20
209.10193
 11
-4.694737
 21
212.56148
  0
LINE
  8
_0-5_1-2
  6
CONTINUOUS
 62
    7
 10
-0.788973
 20
212.66828
 11
-0.788973
 21
209.10193
  0
LINE
  8
_0-5_1-2
  6
CENTER1
 62
    4
 10
-6.240914
 20
209.56694
 11
14.416154
 21
209.56694
  0
LINE
  8
_0-5_1-2
  6
CONTINUOUS
 62
    7
 10
11.718664
 20
211.08733
 11
8.494288
 21
209.57567
  0
LINE
  8
_0-5_1-2
  6
CONTINUOUS
 62
    7
 10
8.522187
 20
212.59367
 11
8.522187
 21
211.26871
  0
LINE
  8
_0-5_1-2
  6
CONTINUOUS
 62
    7
 10
13.588394
 20
211.26871
 11
16.77047
 21
209.5904
  0
LINE
  8
_0-5_1-2
  6
CONTINUOUS
 62
    7
 10
12.91151
 20
212.00479
 11
12.91151
 21
212.52006
  0
LINE
  8
_0-5_1-2
  6
CONTINUOUS
 62
    7
 10
4.261979
 20
210.45899
 11
4.261979
 21
212.44647
  0
LINE
  8
_0-5_1-2
  6
CONTINUOUS
 62
    7
 10
-0.608862
 20
212.52006
 11
-0.608862
 21
208.93194
  0
LINE
  8
_0-5_1-2
  6
CONTINUOUS
 62
    7
 10
18.171016
 20
211.81694
 11
18.531252
 21
211.81694
  0
LINE
  8
_0-5_1-2
  6
CONTINUOUS
 62
    7
 10
18.171016
 20
213.31689
 11
18.171016
 21
211.81694
  0
LINE
  8
_0-5_1-2
  6
CONTINUOUS
 62
    7
 10
18.35114
 20
211.81397
 11
18.35114
 21
213.29816
  0
LINE
  8
_0-5_1-2
  6
DASHED1
 62
    7
 10
18.469627
 20
209.39683
 11
18.469627
 21
209.7785
  0
LINE
  8
_0-5_1-2
  6
DASHED1
 62
    7
 10
18.232641
 20
209.39683
 11
18.232641
 21
209.7785
  0
LINE
  8
_0-5_1-2
  6
CONTINUOUS
 62
    7
 10
-0.609134
 20
208.93773
 11
17.877132
 21
209.20961
  0
LINE
  8
_0-5_1-2
  6
CONTINUOUS
 62
    7
 10
17.877132
 20
209.90969
 11
17.877132
 21
209.20961
  0
LINE
  8
_0-5_1-2
  6
CONTINUOUS
 62
    7
 10
17.868632
 20
209.47195
 11
18.825136
 21
209.47195
  0
LINE
  8
_0-5_1-2
  6
CONTINUOUS
 62
    7
 10
17.868632
 20
209.66193
 11
18.825136
 21
209.66193
  0
LINE
  8
_0-5_1-2
  6
CONTINUOUS
 62
    7
 10
3.918693
 20
215.42943
 11
17.877132
 21
215.22418
  0
LINE
  8
_0-5_1-2
  6
CONTINUOUS
 62
    7
 10
3.891413
 20
209.704
 11
17.877132
 21
209.90969
  0
LINE
  8
_0-5_1-2
  6
CONTINUOUS
 62
    7
 10
16.317296
 20
212.57128
 11
-0.610421
 21
215.49706
  0
LINE
  8
_0-5_1-2
  6
CONTINUOUS
 62
    7
 10
16.303848
 20
212.56024
 11
-0.610421
 21
209.63682
  0
LINE
  8
_0-5_1-2
  6
CONTINUOUS
 62
    7
 10
65.570976
 20
211.81694
 11
65.570976
 21
213.31689
  0
LINE
  8
_0-5_1-2
  6
CONTINUOUS
 62
    7
 10
65.570976
 20
213.31689
 11
65.570976
 21
211.81694
  0
LINE
  8
_0-5_1-2
  6
CONTINUOUS
 62
    7
 10
65.570996
 20
214.81692
 11
65.931246
 21
214.81692
  0
LINE
  8
_0-5_1-2
  6
CONTINUOUS
 62
    7
 10
65.570996
 20
216.31693
 11
65.931246
 21
216.31693
  0
LINE
  8
_0-5_1-2
  6
CONTINUOUS
 62
    7
 10
65.570996
 20
216.31693
 11
65.570996
 21
214.81692
  0
LINE
  8
_0-5_1-2
  6
CONTINUOUS
 62
    7
 10
18.825136
 20
215.21691
 11
18.825136
 21
215.91691
  0
LINE
  8
_0-5_1-2
  6
CONTINUOUS
 62
    7
 10
17.868632
 20
215.85191
 11
18.825136
 21
215.85191
  0
LINE
  8
_0-5_1-2
  6
CONTINUOUS
 62
    7
 10
17.868632
 20
215.28193
 11
18.825136
 21
215.28193
  0
LINE
  8
_0-5_1-2
  6
CONTINUOUS
 62
    7
 10
18.825136
 20
209.91694
 11
18.825136
 21
209.21694
  0
LINE
  8
_0-5_1-2
  6
CONTINUOUS
 62
    7
 10
17.868632
 20
209.85192
 11
18.825136
 21
209.85192
  0
LINE
  8
_0-5_1-2
  6
CONTINUOUS
 62
    7
 10
17.868632
 20
209.28191
 11
18.825136
 21
209.28191
  0
LINE
  8
_0-5_1-2
  6
CONTINUOUS
 62
    7
 10
-0.610272
 20
208.93758
 11
18.148103
 21
212.18161
  0
LINE
  8
_0-5_1-2
  6
CONTINUOUS
 62
    7
 10
-0.610272
 20
216.19627
 11
18.146569
 21
212.95251
  0
LINE
  8
_0-5_1-2
  6
CONTINUOUS
 62
    7
 10
18.825136
 20
215.91691
 11
65.543976
 21
215.91691
  0
LINE
  8
_0-5_1-2
  6
CONTINUOUS
 62
    7
 10
18.825136
 20
215.21691
 11
65.543976
 21
215.21691
  0
LINE
  8
_0-5_1-2
  6
CONTINUOUS
 62
    7
 10
65.570996
 20
213.31689
 11
65.751106
 21
213.31689
  0
LINE
  8
_0-5_1-2
  6
CONTINUOUS
 62
    7
 10
65.751106
 20
211.81397
 11
65.751106
 21
213.31689
  0
LINE
  8
_0-5_1-2
  6
CONTINUOUS
 62
    7
 10
65.751106
 20
213.31986
 11
65.751106
 21
211.81694
  0
LINE
  8
_0-5_1-2
  6
CONTINUOUS
 62
    7
 10
65.570996
 20
211.81694
 11
65.751106
 21
211.81694
  0
LINE
  8
_0-5_1-2
  6
CONTINUOUS
 62
    7
 10
65.751106
 20
214.81398
 11
65.751106
 21
216.31693
  0
LINE
  8
_0-5_1-2
  6
CONTINUOUS
 62
    7
 10
65.751106
 20
216.31989
 11
65.751106
 21
214.81692
  0
LINE
  8
_0-5_1-2
  6
CONTINUOUS
 62
    7
 10
18.5483
 20
212.9169
 11
65.564866
 21
212.9169
  0
LINE
  8
_0-5_1-2
  6
CONTINUOUS
 62
    7
 10
65.570976
 20
208.81693
 11
65.570976
 21
210.31691
  0
LINE
  8
_0-5_1-2
  6
CONTINUOUS
 62
    7
 10
65.570976
 20
210.31691
 11
65.570976
 21
208.81693
  0
LINE
  8
_0-5_1-2
  6
CONTINUOUS
 62
    7
 10
65.570996
 20
210.31691
 11
65.751106
 21
210.31691
  0
LINE
  8
_0-5_1-2
  6
CONTINUOUS
 62
    7
 10
65.751106
 20
208.81398
 11
65.751106
 21
210.31691
  0
LINE
  8
_0-5_1-2
  6
CONTINUOUS
 62
    7
 10
65.751106
 20
210.31987
 11
65.751106
 21
208.81693
  0
LINE
  8
_0-5_1-2
  6
CONTINUOUS
 62
    7
 10
65.570996
 20
208.81693
 11
65.751106
 21
208.81693
  0
LINE
  8
_0-5_1-2
  6
CONTINUOUS
 62
    7
 10
18.825136
 20
209.21694
 11
65.533986
 21
209.21694
  0
LINE
  8
_0-5_1-2
  6
CONTINUOUS
 62
    7
 10
18.531252
 20
213.31689
 11
18.531252
 21
211.81694
  0
LINE
  8
_0-5_1-2
  6
CONTINUOUS
 62
    7
 10
19.964138
 20
215.556
 11
23.23867
 21
212.92423
  0
LINE
  8
_0-5_1-2
  6
CONTINUOUS
 62
    7
 10
19.598558
 20
215.2003
 11
19.598558
 21
212.94462
  0
LINE
  8
_0-5_1-2
  6
CONTINUOUS
 62
    7
 10
28.208648
 20
215.556
 11
24.934128
 21
212.92423
  0
LINE
  8
_0-5_1-2
  6
CONTINUOUS
 62
    7
 10
37.184304
 20
215.556
 11
33.909773
 21
212.92423
  0
LINE
  8
_0-5_1-2
  6
CONTINUOUS
 62
    7
 10
28.939795
 20
215.556
 11
32.214327
 21
212.92423
  0
LINE
  8
_0-5_1-2
  6
CONTINUOUS
 62
    7
 10
37.915456
 20
215.556
 11
41.189996
 21
212.92423
  0
LINE
  8
_0-5_1-2
  6
CONTINUOUS
 62
    7
 10
42.042436
 20
215.2567
 11
42.042436
 21
213.00101
  0
LINE
  8
_0-5_1-2
  6
CONTINUOUS
 62
    7
 10
19.598558
 20
212.20032
 11
19.598558
 21
209.94461
  0
LINE
  8
_0-5_1-2
  6
CONTINUOUS
 62
    7
 10
42.042436
 20
212.25669
 11
42.042436
 21
210.00102
  0
LINE
  8
_0-5_1-2
  6
CONTINUOUS
 62
    7
 10
20.443838
 20
212.17043
 11
23.557299
 21
209.66817
  0
LINE
  8
_0-5_1-2
  6
CONTINUOUS
 62
    7
 10
27.76531
 20
212.19968
 11
24.584199
 21
209.64303
  0
LINE
  8
_0-5_1-2
  6
CONTINUOUS
 62
    7
 10
29.414966
 20
212.17409
 11
32.562252
 21
209.64461
  0
LINE
  8
_0-5_1-2
  6
CONTINUOUS
 62
    7
 10
18.825136
 20
209.91694
 11
65.533986
 21
209.91694
  0
LINE
  8
_0-5_1-2
  6
CONTINUOUS
 62
    7
 10
36.736438
 20
212.19604
 11
33.521502
 21
209.6122
  0
LINE
  8
_0-5_1-2
  6
CONTINUOUS
 62
    7
 10
38.394146
 20
212.17127
 11
41.567206
 21
209.62106
  0
LINE
  8
_0-5_1-2
  6
CONTINUOUS
 62
    7
 10
64.120776
 20
215.556
 11
60.846236
 21
212.92423
  0
LINE
  8
_0-5_1-2
  6
CONTINUOUS
 62
    7
 10
64.486346
 20
215.2003
 11
64.486346
 21
212.94462
  0
LINE
  8
_0-5_1-2
  6
CONTINUOUS
 62
    7
 10
55.876256
 20
215.556
 11
59.150786
 21
212.92423
  0
LINE
  8
_0-5_1-2
  6
CONTINUOUS
 62
    7
 10
55.145126
 20
215.556
 11
51.870576
 21
212.92423
  0
LINE
  8
_0-5_1-2
  6
CONTINUOUS
 62
    7
 10
46.169426
 20
215.556
 11
42.894906
 21
212.92423
  0
LINE
  8
_0-5_1-2
  6
CONTINUOUS
 62
    7
 10
64.486346
 20
212.20032
 11
64.486346
 21
209.94461
  0
LINE
  8
_0-5_1-2
  6
CONTINUOUS
 62
    7
 10
63.641066
 20
212.17043
 11
60.527616
 21
209.66817
  0
LINE
  8
_0-5_1-2
  6
CONTINUOUS
 62
    7
 10
56.319586
 20
212.19968
 11
59.500726
 21
209.64303
  0
LINE
  8
_0-5_1-2
  6
CONTINUOUS
 62
    7
 10
54.669916
 20
212.17409
 11
51.522676
 21
209.64461
  0
LINE
  8
_0-5_1-2
  6
CONTINUOUS
 62
    7
 10
47.348466
 20
212.19604
 11
50.563406
 21
209.6122
  0
LINE
  8
_0-5_1-2
  6
CONTINUOUS
 62
    7
 10
45.690746
 20
212.17127
 11
42.517696
 21
209.62106
  0
LINE
  8
_0-5_1-2
  6
CONTINUOUS
 62
    7
 10
64.486346
 20
215.22616
 11
64.486346
 21
212.93259
  0
LINE
  8
_0-5_1-2
  6
CONTINUOUS
 62
    7
 10
64.486346
 20
212.1681
 11
64.486346
 21
209.94406
  0
LINE
  8
_0-5_1-2
  6
CONTINUOUS
 62
    7
 10
65.931196
 20
213.31689
 11
65.751106
 21
213.31689
  0
LINE
  8
_0-5_1-2
  6
CONTINUOUS
 62
    7
 10
65.751106
 20
211.81397
 11
65.751106
 21
213.31689
  0
LINE
  8
_0-5_1-2
  6
CONTINUOUS
 62
    7
 10
65.751106
 20
213.31986
 11
65.751106
 21
211.81694
  0
LINE
  8
_0-5_1-2
  6
CONTINUOUS
 62
    7
 10
65.931196
 20
211.81694
 11
65.751106
 21
211.81694
  0
LINE
  8
_0-5_1-2
  6
CONTINUOUS
 62
    7
 10
65.751106
 20
208.81398
 11
65.751106
 21
210.31691
  0
LINE
  8
_0-5_1-2
  6
CONTINUOUS
 62
    7
 10
65.751106
 20
210.31987
 11
65.751106
 21
208.81693
  0
LINE
  8
_0-5_1-2
  6
CONTINUOUS
 62
    7
 10
65.570996
 20
213.31689
 11
65.931246
 21
213.31689
  0
LINE
  8
_0-5_1-2
  6
CONTINUOUS
 62
    7
 10
65.570996
 20
211.81694
 11
65.931246
 21
211.81694
  0
LINE
  8
_0-5_1-2
  6
CONTINUOUS
 62
    7
 10
65.570996
 20
211.81694
 11
65.570996
 21
213.31689
  0
LINE
  8
_0-5_1-2
  6
CONTINUOUS
 62
    7
 10
65.751106
 20
213.31986
 11
65.751106
 21
211.83569
  0
LINE
  8
_0-5_1-2
  6
CONTINUOUS
 62
    7
 10
65.570996
 20
211.81694
 11
65.931246
 21
211.81694
  0
LINE
  8
_0-5_1-2
  6
CONTINUOUS
 62
    7
 10
65.570996
 20
213.31689
 11
65.570996
 21
211.81694
  0
LINE
  8
_0-5_1-2
  6
CONTINUOUS
 62
    7
 10
65.751106
 20
211.81397
 11
65.751106
 21
213.29816
  0
LINE
  8
_0-5_1-2
  6
CONTINUOUS
 62
    7
 10
112.97095
 20
211.81694
 11
112.97095
 21
213.31689
  0
LINE
  8
_0-5_1-2
  6
CONTINUOUS
 62
    7
 10
112.97095
 20
213.31689
 11
112.97095
 21
211.81694
  0
LINE
  8
_0-5_1-2
  6
CONTINUOUS
 62
    7
 10
112.971
 20
214.81692
 11
113.33122
 21
214.81692
  0
LINE
  8
_0-5_1-2
  6
CONTINUOUS
 62
    7
 10
113.33122
 20
216.31693
 11
113.33122
 21
214.81692
  0
LINE
  8
_0-5_1-2
  6
CONTINUOUS
 62
    7
 10
112.971
 20
216.31693
 11
113.33122
 21
216.31693
  0
LINE
  8
_0-5_1-2
  6
CONTINUOUS
 62
    7
 10
112.971
 20
216.31693
 11
112.971
 21
214.81692
  0
LINE
  8
_0-5_1-2
  6
CONTINUOUS
 62
    7
 10
112.971
 20
213.31689
 11
113.15112
 21
213.31689
  0
LINE
  8
_0-5_1-2
  6
CONTINUOUS
 62
    7
 10
113.15112
 20
211.81397
 11
113.15112
 21
213.31689
  0
LINE
  8
_0-5_1-2
  6
CONTINUOUS
 62
    7
 10
113.15112
 20
213.31986
 11
113.15112
 21
211.81694
  0
LINE
  8
_0-5_1-2
  6
CONTINUOUS
 62
    7
 10
112.971
 20
211.81694
 11
113.15112
 21
211.81694
  0
LINE
  8
_0-5_1-2
  6
CONTINUOUS
 62
    7
 10
112.971
 20
216.31693
 11
113.15112
 21
216.31693
  0
LINE
  8
_0-5_1-2
  6
CONTINUOUS
 62
    7
 10
113.15112
 20
214.81398
 11
113.15112
 21
216.31693
  0
LINE
  8
_0-5_1-2
  6
CONTINUOUS
 62
    7
 10
113.15112
 20
216.31989
 11
113.15112
 21
214.81692
  0
LINE
  8
_0-5_1-2
  6
CONTINUOUS
 62
    7
 10
112.971
 20
214.81692
 11
113.15112
 21
214.81692
  0
LINE
  8
_0-5_1-2
  6
CONTINUOUS
 62
    7
 10
112.97095
 20
208.81693
 11
112.97095
 21
210.31691
  0
LINE
  8
_0-5_1-2
  6
CONTINUOUS
 62
    7
 10
112.97095
 20
210.31691
 11
112.97095
 21
208.81693
  0
LINE
  8
_0-5_1-2
  6
CONTINUOUS
 62
    7
 10
112.971
 20
210.31691
 11
113.15112
 21
210.31691
  0
LINE
  8
_0-5_1-2
  6
CONTINUOUS
 62
    7
 10
113.15112
 20
208.81398
 11
113.15112
 21
210.31691
  0
LINE
  8
_0-5_1-2
  6
CONTINUOUS
 62
    7
 10
113.15112
 20
210.31987
 11
113.15112
 21
208.81693
  0
LINE
  8
_0-5_1-2
  6
CONTINUOUS
 62
    7
 10
65.931246
 20
213.31689
 11
65.931246
 21
211.81694
  0
LINE
  8
_0-5_1-2
  6
CONTINUOUS
 62
    7
 10
67.364116
 20
215.556
 11
70.638666
 21
212.92423
  0
LINE
  8
_0-5_1-2
  6
CONTINUOUS
 62
    7
 10
66.998526
 20
215.2003
 11
66.998526
 21
212.94462
  0
LINE
  8
_0-5_1-2
  6
CONTINUOUS
 62
    7
 10
75.608666
 20
215.556
 11
72.334126
 21
212.92423
  0
LINE
  8
_0-5_1-2
  6
CONTINUOUS
 62
    7
 10
84.584326
 20
215.556
 11
81.309776
 21
212.92423
  0
LINE
  8
_0-5_1-2
  6
CONTINUOUS
 62
    7
 10
76.339776
 20
215.556
 11
79.614296
 21
212.92423
  0
LINE
  8
_0-5_1-2
  6
CONTINUOUS
 62
    7
 10
85.315486
 20
215.556
 11
88.589976
 21
212.92423
  0
LINE
  8
_0-5_1-2
  6
CONTINUOUS
 62
    7
 10
89.442456
 20
215.2567
 11
89.442456
 21
213.00101
  0
LINE
  8
_0-5_1-2
  6
CONTINUOUS
 62
    7
 10
66.998526
 20
212.20032
 11
66.998526
 21
209.94461
  0
LINE
  8
_0-5_1-2
  6
CONTINUOUS
 62
    7
 10
89.442456
 20
212.25669
 11
89.442456
 21
210.00102
  0
LINE
  8
_0-5_1-2
  6
CONTINUOUS
 62
    7
 10
67.843836
 20
212.17043
 11
70.957266
 21
209.66817
  0
LINE
  8
_0-5_1-2
  6
CONTINUOUS
 62
    7
 10
75.165326
 20
212.19968
 11
71.984166
 21
209.64303
  0
LINE
  8
_0-5_1-2
  6
CONTINUOUS
 62
    7
 10
76.814986
 20
212.17409
 11
79.962236
 21
209.64461
  0
LINE
  8
_0-5_1-2
  6
CONTINUOUS
 62
    7
 10
84.136406
 20
212.19604
 11
80.921496
 21
209.6122
  0
LINE
  8
_0-5_1-2
  6
CONTINUOUS
 62
    7
 10
85.794146
 20
212.17127
 11
88.967196
 21
209.62106
  0
LINE
  8
_0-5_1-2
  6
CONTINUOUS
 62
    7
 10
111.52079
 20
215.556
 11
108.24621
 21
212.92423
  0
LINE
  8
_0-5_1-2
  6
CONTINUOUS
 62
    7
 10
111.88634
 20
215.2003
 11
111.88634
 21
212.94462
  0
LINE
  8
_0-5_1-2
  6
CONTINUOUS
 62
    7
 10
103.27623
 20
215.556
 11
106.55079
 21
212.92423
  0
LINE
  8
_0-5_1-2
  6
CONTINUOUS
 62
    7
 10
94.300616
 20
215.556
 11
97.575136
 21
212.92423
  0
LINE
  8
_0-5_1-2
  6
CONTINUOUS
 62
    7
 10
102.54513
 20
215.556
 11
99.270586
 21
212.92423
  0
LINE
  8
_0-5_1-2
  6
CONTINUOUS
 62
    7
 10
93.569416
 20
215.556
 11
90.294876
 21
212.92423
  0
LINE
  8
_0-5_1-2
  6
CONTINUOUS
 62
    7
 10
111.88634
 20
212.20032
 11
111.88634
 21
209.94461
  0
LINE
  8
_0-5_1-2
  6
CONTINUOUS
 62
    7
 10
111.04107
 20
212.17043
 11
107.92759
 21
209.66817
  0
LINE
  8
_0-5_1-2
  6
CONTINUOUS
 62
    7
 10
103.71961
 20
212.19968
 11
106.90073
 21
209.64303
  0
LINE
  8
_0-5_1-2
  6
CONTINUOUS
 62
    7
 10
102.06991
 20
212.17409
 11
98.922636
 21
209.64461
  0
LINE
  8
_0-5_1-2
  6
CONTINUOUS
 62
    7
 10
94.748506
 20
212.19604
 11
97.963416
 21
209.6122
  0
LINE
  8
_0-5_1-2
  6
CONTINUOUS
 62
    7
 10
93.090786
 20
212.17127
 11
89.917676
 21
209.62106
  0
LINE
  8
_0-5_1-2
  6
CONTINUOUS
 62
    7
 10
111.88634
 20
215.22616
 11
111.88634
 21
212.93259
  0
LINE
  8
_0-5_1-2
  6
CONTINUOUS
 62
    7
 10
111.88634
 20
212.1681
 11
111.88634
 21
209.94406
  0
LINE
  8
_0-5_1-2
  6
CONTINUOUS
 62
    7
 10
113.33122
 20
211.81694
 11
113.33122
 21
213.31689
  0
LINE
  8
_0-5_1-2
  6
CONTINUOUS
 62
    7
 10
113.33122
 20
213.31689
 11
113.33122
 21
211.81694
  0
LINE
  8
_0-5_1-2
  6
CONTINUOUS
 62
    7
 10
113.33122
 20
213.31689
 11
113.15112
 21
213.31689
  0
LINE
  8
_0-5_1-2
  6
CONTINUOUS
 62
    7
 10
113.15112
 20
211.81397
 11
113.15112
 21
213.31689
  0
LINE
  8
_0-5_1-2
  6
CONTINUOUS
 62
    7
 10
113.15112
 20
213.31986
 11
113.15112
 21
211.81694
  0
LINE
  8
_0-5_1-2
  6
CONTINUOUS
 62
    7
 10
113.33122
 20
211.81694
 11
113.15112
 21
211.81694
  0
LINE
  8
_0-5_1-2
  6
CONTINUOUS
 62
    7
 10
113.33122
 20
208.81693
 11
113.33122
 21
210.31691
  0
LINE
  8
_0-5_1-2
  6
CONTINUOUS
 62
    7
 10
113.33122
 20
210.31691
 11
113.33122
 21
208.81693
  0
LINE
  8
_0-5_1-2
  6
CONTINUOUS
 62
    7
 10
113.33122
 20
210.31691
 11
113.15112
 21
210.31691
  0
LINE
  8
_0-5_1-2
  6
CONTINUOUS
 62
    7
 10
113.15112
 20
208.81398
 11
113.15112
 21
210.31691
  0
LINE
  8
_0-5_1-2
  6
CONTINUOUS
 62
    7
 10
113.15112
 20
210.31987
 11
113.15112
 21
208.81693
  0
LINE
  8
_0-5_1-2
  6
CONTINUOUS
 62
    7
 10
113.33122
 20
208.81693
 11
113.15112
 21
208.81693
  0
LINE
  8
_0-5_1-2
  6
CONTINUOUS
 62
    7
 10
65.931246
 20
211.81694
 11
65.931246
 21
213.31689
  0
LINE
  8
_0-5_1-2
  6
CONTINUOUS
 62
    7
 10
65.931246
 20
213.31689
 11
65.931246
 21
211.81694
  0
LINE
  8
_0-5_1-2
  6
CONTINUOUS
 62
    7
 10
65.931246
 20
211.81694
 11
65.931246
 21
213.31689
  0
LINE
  8
_0-5_1-2
  6
CONTINUOUS
 62
    7
 10
65.570996
 20
213.31689
 11
65.931246
 21
213.31689
  0
LINE
  8
_0-5_1-2
  6
CONTINUOUS
 62
    7
 10
65.931246
 20
210.31691
 11
65.751106
 21
210.31691
  0
LINE
  8
_0-5_1-2
  6
CONTINUOUS
 62
    7
 10
65.931246
 20
210.31691
 11
65.931246
 21
209.21694
  0
LINE
  8
_0-5_1-2
  6
CONTINUOUS
 62
    7
 10
65.931246
 20
208.81693
 11
65.931246
 21
209.21694
  0
LINE
  8
_0-5_1-2
  6
CONTINUOUS
 62
    7
 10
65.931246
 20
208.81693
 11
65.751106
 21
208.81693
  0
LINE
  8
_0-5_1-2
  6
CONTINUOUS
 62
    7
 10
65.570996
 20
214.81692
 11
65.931246
 21
214.81692
  0
LINE
  8
_0-5_1-2
  6
CONTINUOUS
 62
    7
 10
65.931246
 20
216.31693
 11
65.931246
 21
214.81692
  0
LINE
  8
_0-5_1-2
  6
CONTINUOUS
 62
    7
 10
65.570996
 20
216.31693
 11
65.931246
 21
216.31693
  0
LINE
  8
_0-5_1-2
  6
CONTINUOUS
 62
    7
 10
112.971
 20
208.81693
 11
113.15112
 21
208.81693
  0
LINE
  8
_0-5_1-2
  6
CONTINUOUS
 62
    7
 10
65.932016
 20
212.9169
 11
112.92161
 21
212.9169
  0
LINE
  8
_0-5_1-2
  6
CONTINUOUS
 62
    7
 10
65.926986
 20
212.21695
 11
112.95614
 21
212.21695
  0
LINE
  8
_0-5_1-2
  6
CONTINUOUS
 62
    7
 10
65.931246
 20
209.91694
 11
112.92161
 21
209.91694
  0
LINE
  8
_0-5_1-2
  6
CONTINUOUS
 62
    7
 10
65.931246
 20
209.21694
 11
112.95614
 21
209.21694
  0
LINE
  8
_0-5_1-2
  6
CONTINUOUS
 62
    7
 10
46.900596
 20
215.556
 11
50.175116
 21
212.92423
  0
LINE
  8
_0-5_1-2
  6
CONTINUOUS
 62
    7
 10
113.30128
 20
212.9169
 11
153.14331
 21
212.9169
  0
LINE
  8
_0-5_1-2
  6
CONTINUOUS
 62
    7
 10
113.37034
 20
212.21695
 11
153.17877
 21
212.21695
  0
LINE
  8
_0-5_1-2
  6
CONTINUOUS
 62
    7
 10
65.931246
 20
215.21691
 11
112.96177
 21
215.21691
  0
LINE
  8
_0-5_1-2
  6
CONTINUOUS
 62
    7
 10
65.931246
 20
215.91691
 11
112.96959
 21
215.91691
  0
LINE
  8
_0-5_1-2
  6
CONTINUOUS
 62
    7
 10
113.32904
 20
215.2204
 11
153.17558
 21
214.61704
  0
LINE
  8
_0-5_1-2
  6
CONTINUOUS
 62
    7
 10
113.33758
 20
215.92038
 11
153.21603
 21
215.3165
  0
LINE
  8
_0-5_1-2
  6
CONTINUOUS
 62
    7
 10
153.18515
 20
215.3169
 11
159.82114
 21
215.3169
  0
LINE
  8
_0-5_1-2
  6
CONTINUOUS
 62
    7
 10
158.01995
 20
215.85693
 11
159.82114
 21
215.85693
  0
LINE
  8
_0-5_1-2
  6
CONTINUOUS
 62
    7
 10
158.01995
 20
215.3169
 11
158.01995
 21
215.85693
  0
LINE
  8
_0-5_1-2
  6
CONTINUOUS
 62
    7
 10
159.06276
 20
213.51695
 11
159.06276
 21
215.3169
  0
LINE
  8
_0-5_1-2
  6
CONTINUOUS
 62
    7
 10
157.35634
 20
213.51695
 11
159.06276
 21
213.51695
  0
LINE
  8
_0-5_1-2
  6
CONTINUOUS
 62
    7
 10
157.35634
 20
212.2817
 11
157.35634
 21
213.51695
  0
LINE
  8
_0-5_1-2
  6
CONTINUOUS
 62
    7
 10
112.97095
 20
213.31689
 11
112.97095
 21
211.81694
  0
LINE
  8
_0-5_1-2
  6
CONTINUOUS
 62
    7
 10
112.97095
 20
211.81694
 11
112.97095
 21
213.31689
  0
LINE
  8
_0-5_1-2
  6
CONTINUOUS
 62
    7
 10
112.971
 20
210.31691
 11
113.33122
 21
210.31691
  0
LINE
  8
_0-5_1-2
  6
CONTINUOUS
 62
    7
 10
113.33122
 20
208.81693
 11
113.33122
 21
210.31691
  0
LINE
  8
_0-5_1-2
  6
CONTINUOUS
 62
    7
 10
112.971
 20
208.81693
 11
113.33122
 21
208.81693
  0
LINE
  8
_0-5_1-2
  6
CONTINUOUS
 62
    7
 10
112.971
 20
208.81693
 11
112.971
 21
210.31691
  0
LINE
  8
_0-5_1-2
  6
CONTINUOUS
 62
    7
 10
112.971
 20
211.81694
 11
113.15112
 21
211.81694
  0
LINE
  8
_0-5_1-2
  6
CONTINUOUS
 62
    7
 10
113.15112
 20
213.31986
 11
113.15112
 21
211.81694
  0
LINE
  8
_0-5_1-2
  6
CONTINUOUS
 62
    7
 10
113.15112
 20
211.81397
 11
113.15112
 21
213.31689
  0
LINE
  8
_0-5_1-2
  6
CONTINUOUS
 62
    7
 10
112.971
 20
213.31689
 11
113.15112
 21
213.31689
  0
LINE
  8
_0-5_1-2
  6
CONTINUOUS
 62
    7
 10
112.971
 20
208.81693
 11
113.15112
 21
208.81693
  0
LINE
  8
_0-5_1-2
  6
CONTINUOUS
 62
    7
 10
113.15112
 20
210.31987
 11
113.15112
 21
208.81693
  0
LINE
  8
_0-5_1-2
  6
CONTINUOUS
 62
    7
 10
113.15112
 20
208.81398
 11
113.15112
 21
210.31691
  0
LINE
  8
_0-5_1-2
  6
CONTINUOUS
 62
    7
 10
112.971
 20
210.31691
 11
113.15112
 21
210.31691
  0
LINE
  8
_0-5_1-2
  6
CONTINUOUS
 62
    7
 10
111.88634
 20
209.93355
 11
111.88634
 21
212.18923
  0
LINE
  8
_0-5_1-2
  6
CONTINUOUS
 62
    7
 10
111.88634
 20
209.90769
 11
111.88634
 21
212.20126
  0
LINE
  8
_0-5_1-2
  6
CONTINUOUS
 62
    7
 10
113.33122
 20
213.31689
 11
113.33122
 21
211.81694
  0
LINE
  8
_0-5_1-2
  6
CONTINUOUS
 62
    7
 10
113.33122
 20
211.81694
 11
113.33122
 21
213.31689
  0
LINE
  8
_0-5_1-2
  6
CONTINUOUS
 62
    7
 10
113.33122
 20
211.81694
 11
113.15112
 21
211.81694
  0
LINE
  8
_0-5_1-2
  6
CONTINUOUS
 62
    7
 10
113.15112
 20
213.31986
 11
113.15112
 21
211.81694
  0
LINE
  8
_0-5_1-2
  6
CONTINUOUS
 62
    7
 10
113.15112
 20
211.81397
 11
113.15112
 21
213.31689
  0
LINE
  8
_0-5_1-2
  6
CONTINUOUS
 62
    7
 10
113.33122
 20
213.31689
 11
113.15112
 21
213.31689
  0
LINE
  8
_0-5_1-2
  6
CONTINUOUS
 62
    7
 10
113.30128
 20
212.21695
 11
153.14331
 21
212.21695
  0
LINE
  8
_0-5_1-2
  6
CONTINUOUS
 62
    7
 10
113.37034
 20
212.9169
 11
153.17877
 21
212.9169
  0
LINE
  8
_0-5_1-2
  6
CONTINUOUS
 62
    7
 10
113.32904
 20
209.91343
 11
153.17558
 21
210.51679
  0
LINE
  8
_0-5_1-2
  6
CONTINUOUS
 62
    7
 10
113.33758
 20
209.21347
 11
153.21603
 21
209.81732
  0
LINE
  8
_0-5_1-2
  6
CONTINUOUS
 62
    7
 10
159.82114
 20
209.81693
 11
159.82114
 21
209.27692
  0
LINE
  8
_0-5_1-2
  6
CONTINUOUS
 62
    7
 10
153.18515
 20
209.81693
 11
159.82114
 21
209.81693
  0
LINE
  8
_0-5_1-2
  6
CONTINUOUS
 62
    7
 10
158.01995
 20
209.27692
 11
159.82114
 21
209.27692
  0
LINE
  8
_0-5_1-2
  6
CONTINUOUS
 62
    7
 10
158.01995
 20
209.81693
 11
158.01995
 21
209.27692
  0
LINE
  8
_0-5_1-2
  6
CONTINUOUS
 62
    7
 10
159.06276
 20
211.61691
 11
159.06276
 21
209.81693
  0
LINE
  8
_0-5_1-2
  6
CONTINUOUS
 62
    7
 10
157.35634
 20
211.61691
 11
159.06276
 21
211.61691
  0
LINE
  8
_0-5_1-2
  6
CONTINUOUS
 62
    7
 10
157.35634
 20
212.85217
 11
157.35634
 21
211.61691
  0
LINE
  8
_0-5_1-2
  6
CONTINUOUS
 62
    7
 10
153.18515
 20
209.82391
 11
153.18515
 21
215.3169
  0
LINE
  8
_0-5_1-2
  6
CONTINUOUS
 62
    7
 10
114.41589
 20
215.2003
 11
114.41589
 21
212.94462
  0
LINE
  8
_0-5_1-2
  6
CONTINUOUS
 62
    7
 10
114.41589
 20
209.90769
 11
114.41589
 21
212.20126
  0
LINE
  8
_0-5_1-2
  6
CONTINUOUS
 62
    7
 10
114.41589
 20
215.27597
 11
114.41589
 21
212.93259
  0
LINE
  8
_0-5_1-2
  6
CONTINUOUS
 62
    7
 10
114.69792
 20
215.59688
 11
117.36314
 21
212.92257
  0
LINE
  8
_0-5_1-2
  6
CONTINUOUS
 62
    7
 10
117.7588
 20
212.91948
 11
120.46448
 21
215.44178
  0
LINE
  8
_0-5_1-2
  6
CONTINUOUS
 62
    7
 10
121.29474
 20
215.44821
 11
123.73185
 21
212.94009
  0
LINE
  8
_0-5_1-2
  6
CONTINUOUS
 62
    7
 10
124.47793
 20
212.94897
 11
126.88128
 21
215.3605
  0
LINE
  8
_0-5_1-2
  6
CONTINUOUS
 62
    7
 10
150.19073
 20
212.98064
 11
152.75322
 21
214.97575
  0
LINE
  8
_0-5_1-2
  6
CONTINUOUS
 62
    7
 10
146.99129
 20
215.09873
 11
149.52797
 21
213.01024
  0
LINE
  8
_0-5_1-2
  6
CONTINUOUS
 62
    7
 10
143.81411
 20
212.98599
 11
146.37697
 21
215.11006
  0
LINE
  8
_0-5_1-2
  6
CONTINUOUS
 62
    7
 10
140.5315
 20
215.1621
 11
143.00256
 21
213.00049
  0
LINE
  8
_0-5_1-2
  6
CONTINUOUS
 62
    7
 10
137.33891
 20
212.9996
 11
139.87131
 21
215.14968
  0
LINE
  8
_0-5_1-2
  6
CONTINUOUS
 62
    7
 10
134.02534
 20
215.28797
 11
136.73048
 21
212.97802
  0
LINE
  8
_0-5_1-2
  6
CONTINUOUS
 62
    7
 10
130.78566
 20
212.99029
 11
133.39556
 21
215.21894
  0
LINE
  8
_0-5_1-2
  6
CONTINUOUS
 62
    7
 10
127.68561
 20
215.39046
 11
130.21442
 21
212.98319
  0
LINE
  8
_0-5_1-2
  6
CONTINUOUS
 62
    7
 10
143.81411
 20
209.986
 11
146.37697
 21
212.1101
  0
LINE
  8
_0-5_1-2
  6
CONTINUOUS
 62
    7
 10
140.5315
 20
212.16211
 11
143.00256
 21
210.00053
  0
LINE
  8
_0-5_1-2
  6
CONTINUOUS
 62
    7
 10
137.33891
 20
209.99959
 11
139.87131
 21
212.14969
  0
LINE
  8
_0-5_1-2
  6
CONTINUOUS
 62
    7
 10
130.78566
 20
209.99033
 11
133.39556
 21
212.21898
  0
LINE
  8
_0-5_1-2
  6
CONTINUOUS
 62
    7
 10
114.41589
 20
212.20368
 11
114.41589
 21
209.94461
  0
LINE
  8
_0-5_1-2
  6
CONTINUOUS
 62
    7
 10
114.41589
 20
209.93355
 11
114.41589
 21
212.20368
  0
LINE
  8
_0-5_1-2
  6
CONTINUOUS
 62
    7
 10
114.41589
 20
212.20368
 11
114.41589
 21
209.94406
  0
LINE
  8
_0-5_1-2
  6
CONTINUOUS
 62
    7
 10
114.41589
 20
212.21601
 11
114.41589
 21
209.93263
  0
LINE
  8
_0-5_1-2
  6
CONTINUOUS
 62
    7
 10
115.08286
 20
212.21061
 11
117.55471
 21
209.73037
  0
LINE
  8
_0-5_1-2
  6
CONTINUOUS
 62
    7
 10
117.59262
 20
209.76462
 11
120.23003
 21
212.22318
  0
LINE
  8
_0-5_1-2
  6
CONTINUOUS
 62
    7
 10
121.55549
 20
212.17988
 11
123.73185
 21
209.9401
  0
LINE
  8
_0-5_1-2
  6
CONTINUOUS
 62
    7
 10
124.47793
 20
209.94896
 11
126.72859
 21
212.20725
  0
LINE
  8
_0-5_1-2
  6
CONTINUOUS
 62
    7
 10
127.89507
 20
212.19111
 11
130.21442
 21
209.98321
  0
LINE
  8
_0-5_1-2
  6
CONTINUOUS
 62
    7
 10
134.17734
 20
212.1582
 11
136.73048
 21
209.97801
  0
LINE
  8
_0-5_1-2
  6
CONTINUOUS
 62
    7
 10
146.99129
 20
212.09872
 11
149.34528
 21
210.16067
  0
LINE
  8
_0-5_1-2
  6
CONTINUOUS
 62
    7
 10
150.33729
 20
210.0947
 11
152.98604
 21
212.15702
  0
LINE
  8
_0-5_1-2
  6
CONTINUOUS
 62
    7
 10
159.82114
 20
215.3169
 11
159.82114
 21
215.85693
  0
LINE
  8
_0-5_1-2
  6
CENTER1
 62
    4
 10
-5.348869
 20
208.25197
 11
-5.348869
 21
216.77335
  0
LINE
  8
_0-5_1-2
  6
CONTINUOUS
 62
    7
 10
13.551105
 20
216.62627
 11
13.551105
 21
216.0779
  0
LINE
  8
_0-5_1-2
  6
CONTINUOUS
 62
    7
 10
14.945898
 20
217.38963
 11
14.945898
 21
216.04484
  0
LINE
  8
_0-5_1-2
  6
CONTINUOUS
 62
    7
 10
11.443066
 20
216.12669
 11
11.89379
 21
216.57743
  0
LINE
  8
_0-5_1-2
  6
CONTINUOUS
 62
    7
 10
6.246681
 20
214.20374
 11
6.604566
 21
213.84587
  0
LINE
  8
_0-5_1-2
  6
CONTINUOUS
 62
    7
 10
7.057999
 20
211.74161
 11
9.063524
 21
213.74714
  0
LINE
  8
_0-5_1-2
  6
CONTINUOUS
 62
    7
 10
9.80713
 20
214.49077
 11
10.43095
 21
215.11457
  0
LINE
  8
_0-5_1-2
  6
CONTINUOUS
 62
    7
 10
8.847608
 20
215.13834
 11
9.435562
 21
214.5504
  0
LINE
  8
_0-5_1-2
  6
CONTINUOUS
 62
    7
 10
10.427041
 20
213.55891
 11
12.143902
 21
211.84205
  0
LINE
  8
_0-5_1-2
  6
CONTINUOUS
 62
    7
 10
8.871758
 20
210.01985
 11
9.525828
 21
210.67391
  0
LINE
  8
_0-5_1-2
  6
CONTINUOUS
 62
    7
 10
10.533836
 20
211.68193
 11
12.152711
 21
213.30083
  0
LINE
  8
_0-5_1-2
  6
CONTINUOUS
 62
    7
 10
5.751109
 20
216.50043
 11
5.751109
 21
216.17705
  0
LINE
  8
_0-5_1-2
  6
CONTINUOUS
 62
    7
 10
4.751105
 20
216.67576
 11
4.751105
 21
216.17705
  0
LINE
  8
_0-5_1-2
  6
CONTINUOUS
 62
    7
 10
4.751105
 20
215.41691
 11
4.751105
 21
215.31776
  0
LINE
  8
_0-5_1-2
  6
CONTINUOUS
 62
    7
 10
4.751105
 20
214.52457
 11
4.751105
 21
210.72389
  0
LINE
  8
_0-5_1-2
  6
CONTINUOUS
 62
    7
 10
4.751105
 20
209.86464
 11
4.751105
 21
209.79854
  0
LINE
  8
_0-5_1-2
  6
CONTINUOUS
 62
    7
 10
4.751105
 20
208.9062
 11
4.751105
 21
208.64119
  0
LINE
  8
_0-5_1-2
  6
CONTINUOUS
 62
    7
 10
13.551105
 20
215.25167
 11
13.551105
 21
209.93073
  0
LINE
  8
_0-5_1-2
  6
CONTINUOUS
 62
    7
 10
13.551105
 20
209.1045
 11
13.551105
 21
208.60076
  0
LINE
  8
_0-5_1-2
  6
CONTINUOUS
 62
    7
 10
14.945898
 20
209.1045
 11
14.945898
 21
207.81623
  0
LINE
  8
_0-5_1-2
  6
CONTINUOUS
 62
    7
 10
14.945898
 20
215.18556
 11
14.945898
 21
213.66531
  0
LINE
  8
_0-5_1-2
  6
CONTINUOUS
 62
    7
 10
14.945898
 20
212.73991
 11
14.945898
 21
212.40943
  0
LINE
  8
_0-5_1-2
  6
CONTINUOUS
 62
    7
 10
14.945898
 20
211.61624
 11
14.945898
 21
209.96376
  0
LINE
  8
_0-5_1-2
  6
CONTINUOUS
 62
    7
 10
7.397462
 20
216.58852
 11
7.832028
 21
216.15394
  0
LINE
  8
_0-5_1-2
  6
CONTINUOUS
 62
    7
 10
5.751109
 20
208.94718
 11
5.751109
 21
208.51287
  0
LINE
  8
_0-5_1-2
  6
CONTINUOUS
 62
    7
 10
5.751109
 20
209.96638
 11
5.751109
 21
209.79651
  0
LINE
  8
_0-5_1-2
  6
CONTINUOUS
 62
    7
 10
5.751109
 20
215.35082
 11
5.751109
 21
215.18974
  0
LINE
  8
_0-5_1-2
  6
CONTINUOUS
 62
    7
 10
5.751109
 20
214.34043
 11
5.751109
 21
210.85816
  0
LINE
  8
_0-5_1-2
  6
CONTINUOUS
 62
    7
 10
13.151155
 20
210.84455
 11
13.151155
 21
211.24038
  0
LINE
  8
_0-5_1-2
  6
CONTINUOUS
 62
    7
 10
13.151155
 20
212.17463
 11
13.151155
 21
213.06641
  0
LINE
  8
_0-5_1-2
  6
CONTINUOUS
 62
    7
 10
13.151155
 20
213.95823
 11
13.151155
 21
214.30217
  0
LINE
  8
_0-5_1-2
  6
CONTINUOUS
 62
    7
 10
17.103722
 20
211.97386
 11
17.103722
 21
209.94461
  0
LINE
  8
_0-5_1-2
  6
CONTINUOUS
 62
    7
 10
17.103722
 20
215.2003
 11
17.103722
 21
213.14747
  0
LINE
  8
_0-5_1-2
  6
CONTINUOUS
 62
    7
 10
18.531252
 20
211.81694
 11
18.531252
 21
213.31689
  0
LINE
  8
_0-5_1-2
  6
CONTINUOUS
 62
    7
 10
18.171016
 20
213.31689
 11
18.531252
 21
213.31689
  0
LINE
  8
_0-3_1-0
  6
CONTINUOUS
 62
    4
 10
9.651032
 20
212.5669
 11
-11.420751
 21
191.49512
  0
LINE
  8
_0-3_1-0
  6
CONTINUOUS
 62
    4
 10
-11.420751
 20
191.49512
 11
-8.822676
 21
192.99513
  0
LINE
  8
_0-3_1-0
  6
CONTINUOUS
 62
    4
 10
-11.420751
 20
191.49512
 11
-9.920752
 21
194.09319
  0
LINE
  8
_0-3_1-0
  6
CONTINUOUS
 62
    4
 10
-19.64888
 20
226.91559
 11
9.651113
 21
226.91559
  0
LINE
  8
_0-3_1-0
  6
CONTINUOUS
 62
    4
 10
-19.64888
 20
217.32413
 11
-19.64888
 21
226.91559
  0
LINE
  8
_0-3_1-0
  6
CONTINUOUS
 62
    4
 10
9.651113
 20
217.32413
 11
9.651113
 21
226.91559
  0
LINE
  8
_0-3_1-0
  6
CONTINUOUS
 62
    4
 10
15.401113
 20
226.91559
 11
9.651113
 21
226.91559
  0
LINE
  8
_0-3_1-0
  6
CONTINUOUS
 62
    4
 10
15.401113
 20
217.32413
 11
15.401113
 21
226.91559
  0
LINE
  8
_0-3_1-0
  6
CONTINUOUS
 62
    4
 10
-27.361864
 20
217.81691
 11
-27.361864
 21
212.56688
  0
LINE
  8
_0-3_1-0
  6
CONTINUOUS
 62
    4
 10
-16.576757
 20
217.81691
 11
-27.361864
 21
217.81691
  0
LINE
  8
_0-3_1-0
  6
CONTINUOUS
 62
    4
 10
-16.576757
 20
212.56688
 11
-27.361864
 21
212.56688
  0
LINE
  8
_0-3_1-0
  6
CONTINUOUS
 62
    4
 10
-27.361864
 20
212.56688
 11
-27.361864
 21
202.11692
  0
LINE
  8
_0-3_1-0
  6
CONTINUOUS
 62
    4
 10
-16.576757
 20
202.11692
 11
-27.361864
 21
202.11692
  0
LINE
  8
_0-5_1-2
  6
CONTINUOUS
 62
    7
 10
6.351206
 20
35.256875
 11
6.351206
 21
35.066866
  0
LINE
  8
_0-3_1-0
  6
CENTER2
 62
    2
 10
14.889426
 20
130.49897
 11
-27.064416
 21
130.49897
  0
LINE
  8
_0-3_1-0
  6
CONTINUOUS
 62
    4
 10
-31.462189
 20
32.566932
 11
-31.462189
 21
35.257049
  0
LINE
  8
_0-3_1-0
  6
CONTINUOUS
 62
    4
 10
7.423684
 20
32.566932
 11
-31.462189
 21
32.566932
  0
LINE
  8
_0-3_1-0
  6
CONTINUOUS
 62
    4
 10
7.423684
 20
35.257049
 11
-31.462189
 21
35.257049
  0
LINE
  8
_0-3_1-0
  6
CONTINUOUS
 62
    4
 10
-31.462189
 20
35.257049
 11
-31.462189
 21
123.45355
  0
LINE
  8
_0-3_1-0
  6
CONTINUOUS
 62
    4
 10
7.423684
 20
123.45355
 11
-31.462189
 21
123.45355
  0
LINE
  8
_0-3_1-0
  6
CONTINUOUS
 62
    4
 10
-31.462189
 20
123.4536
 11
-31.462189
 21
130.49896
  0
LINE
  8
_0-3_1-0
  6
CONTINUOUS
 62
    4
 10
-25.96655
 20
123.4536
 11
-31.462189
 21
123.4536
  0
LINE
  8
_0-3_1-0
  6
CONTINUOUS
 62
    4
 10
-25.96655
 20
130.49896
 11
-31.462189
 21
130.49896
  0
LINE
  8
_0-5_1-2
  6
CENTER1
 62
    4
 10
-34.661363
 20
170.4976
 11
-18.786799
 21
170.4976
  0
LINE
  8
_0-3_1-0
  6
CONTINUOUS
 62
    4
 10
-31.462189
 20
130.49896
 11
-31.462189
 21
170.4976
  0
LINE
  8
_0-3_1-0
  6
CONTINUOUS
 62
    4
 10
9.651806
 20
124.99931
 11
159.65179
 21
124.99931
  0
LINE
  8
_0-3_1-0
  6
CONTINUOUS
 62
    4
 10
159.65179
 20
156.62093
 11
159.65179
 21
124.99931
  0
LINE
  8
_0-3_1-0
  6
CONTINUOUS
 62
    7
 10
9.651806
 20
99.999311
 11
159.65179
 21
99.999311
  0
LINE
  8
_0-3_1-0
  6
DASHED2
 62
    7
 10
9.651806
 20
79.999311
 11
159.65179
 21
79.999311
  0
LINE
  8
_0-3_1-0
  6
CONTINUOUS
 62
    7
 10
94.651786
 20
99.999311
 11
94.651786
 21
59.999311
  0
LINE
  8
_0-3_1-0
  6
CONTINUOUS
 62
    7
 10
9.651806
 20
59.999311
 11
94.651786
 21
59.999311
  0
LINE
  8
_0-3_1-0
  6
CONTINUOUS
 62
    7
 10
94.651786
 20
59.999311
 11
159.65179
 21
79.999311
  0
LINE
  8
_0-3_1-0
  6
CONTINUOUS
 62
    7
 10
139.65178
 20
99.999311
 11
139.65178
 21
73.845461
  0
LINE
  8
_0-3_1-0
  6
CONTINUOUS
 62
    7
 10
119.65179
 20
99.999311
 11
119.65179
 21
67.691621
  0
LINE
  8
_0-3_1-0
  6
DASHED2
 62
    7
 10
119.65179
 20
67.691621
 11
159.65179
 21
67.691621
  0
LINE
  8
_0-3_1-0
  6
DASHED2
 62
    7
 10
139.65178
 20
73.845461
 11
159.65179
 21
73.845461
  0
LINE
  8
_0-3_1-0
  6
DASHED2
 62
    7
 10
94.651786
 20
59.999311
 11
159.65179
 21
59.999311
  0
LINE
  8
_0-4_1-1
  6
CONTINUOUS
 62
    7
 10
159.65179
 20
59.999311
 11
159.65179
 21
99.999311
  0
LINE
  8
_0-5_1-2
  6
CONTINUOUS
 62
    7
 10
18.521527
 20
212.21695
 11
65.572676
 21
212.21695
  0
LINE
  8
_0-6_2-0
  6
CONTINUOUS
 62
    7
 10
14.51046
 20
-4.027122
 11
27.880425
 21
-17.397063
  0
LINE
  8
_0-6_2-0
  6
CENTER1
 62
    2
 10
-10.154589
 20
17.102426
 11
27.099356
 21
-20.151538
  0
LINE
  8
_0-6_2-0
  6
CENTER1
 62
    2
 10
-10.297956
 20
-20.220104
 11
26.803369
 21
16.881178
  0
LINE
  8
_0-6_2-0
  6
CONTINUOUS
 62
    7
 10
1.435047
 20
-4.987436
 11
1.435047
 21
2.038451
  0
LINE
  8
_0-6_2-0
  6
CONTINUOUS
 62
    7
 10
4.978385
 20
-8.48725
 11
11.948913
 21
-8.48725
  0
LINE
  8
_0-6_2-0
  6
CONTINUOUS
 62
    7
 10
4.978385
 20
5.512753
 11
11.893586
 21
5.512753
  0
LINE
  8
_0-6_2-0
  6
CONTINUOUS
 62
    7
 10
15.434994
 20
-4.932108
 11
15.434994
 21
1.983123
  0
LINE
  8
_0-6_2-0
  6
CONTINUOUS
 62
    7
 10
11.006464
 20
4.619817
 11
11.497088
 21
5.110428
  0
LINE
  8
_0-6_2-0
  6
CONTINUOUS
 62
    7
 10
14.51135
 20
1.053628
 11
15.001925
 21
1.544239
  0
LINE
  8
_0-6_2-0
  6
CONTINUOUS
 62
    7
 10
6.827899
 20
3.655458
 11
13.420487
 21
-2.937119
  0
LINE
  8
_0-6_2-0
  6
CONTINUOUS
 62
    7
 10
14.493683
 20
-4.010321
 11
14.800311
 21
-4.316973
  0
LINE
  8
_0-6_2-0
  6
CONTINUOUS
 62
    7
 10
10.988797
 20
-7.576523
 11
24.344906
 21
-20.932607
  0
LINE
  8
_0-6_2-0
  6
CONTINUOUS
 62
    7
 10
10.927482
 20
-7.515158
 11
11.602101
 21
-8.189753
  0
LINE
  8
_0-6_2-0
  6
CONTINUOUS
 62
    7
 10
6.876199
 20
-6.581518
 11
13.438105
 21
-0.019593
  0
LINE
  8
_0-6_2-0
  6
CONTINUOUS
 62
    7
 10
3.248682
 20
-3.137966
 11
9.994584
 21
3.607912
  0
LINE
  8
_0-6_2-0
  6
CONTINUOUS
 62
    7
 10
3.261746
 20
0.150596
 11
9.915651
 21
-6.503302
  0
LINE
  8
_0-6_2-0
  6
CONTINUOUS
 62
    7
 10
10.966082
 20
4.57946
 11
22.577122
 21
16.190499
  0
LINE
  8
_0-6_2-0
  6
CONTINUOUS
 62
    7
 10
14.544854
 20
1.087144
 11
26.112665
 21
12.654955
  0
LINE
  8
_0-6_2-0
  6
CONTINUOUS
 62
    7
 10
-11.010459
 20
14.422739
 11
-7.47489
 21
17.958246
  0
LINE
  8
_0-6_2-0
  6
DASHED1
 62
    4
 10
-9.995362
 20
13.443769
 11
-6.460238
 21
16.978892
  0
LINE
  8
_0-6_2-0
  6
DASHED1
 62
    4
 10
-9.868079
 20
13.316485
 11
-6.332955
 21
16.851609
  0
LINE
  8
_0-6_2-0
  6
CENTER2
 62
    2
 10
-9.701106
 20
12.477021
 11
-10.695592
 21
13.471507
  0
LINE
  8
_0-6_2-0
  6
CENTER2
 62
    2
 10
-5.529172
 20
16.648956
 11
-6.523657
 21
17.643429
  0
LINE
  8
_0-6_2-0
  6
CONTINUOUS
 62
    7
 10
-10.267966
 20
11.629676
 11
-11.682184
 21
13.043881
  0
LINE
  8
_0-6_2-0
  6
CONTINUOUS
 62
    7
 10
-11.682184
 20
13.043881
 11
-6.096032
 21
18.630033
  0
LINE
  8
_0-6_2-0
  6
CONTINUOUS
 62
    7
 10
-4.681814
 20
17.215815
 11
-6.096032
 21
18.630033
  0
LINE
  8
_0-6_2-0
  6
CONTINUOUS
 62
    7
 10
-10.267966
 20
11.629676
 11
-4.681814
 21
17.215815
  0
LINE
  8
_0-6_2-0
  6
CENTER2
 62
    2
 10
-10.804688
 20
12.507159
 11
-5.648537
 21
17.66331
  0
LINE
  8
_0-6_2-0
  6
CONTINUOUS
 62
    7
 10
-10.656892
 20
14.069173
 11
-11.010459
 21
14.422739
  0
LINE
  8
_0-6_2-0
  6
CONTINUOUS
 62
    7
 10
-7.121348
 20
17.604717
 11
-7.47489
 21
17.958246
  0
LINE
  8
_0-6_2-0
  6
CONTINUOUS
 62
    7
 10
-11.010434
 20
14.422715
 11
-10.656892
 21
14.069173
  0
LINE
  8
_0-6_2-0
  6
CONTINUOUS
 62
    7
 10
-9.242699
 20
12.654955
 11
2.341815
 21
1.070516
  0
LINE
  8
_0-6_2-0
  6
CONTINUOUS
 62
    7
 10
-7.474865
 20
17.958271
 11
-7.121323
 21
17.604741
  0
LINE
  8
_0-6_2-0
  6
CONTINUOUS
 62
    7
 10
-5.707131
 20
16.190524
 11
6.000014
 21
4.483366
  0
LINE
  8
_0-6_2-0
  6
CONTINUOUS
 62
    7
 10
-5.707131
 20
-19.164859
 11
5.925634
 21
-7.532058
  0
LINE
  8
_0-6_2-0
  6
CONTINUOUS
 62
    7
 10
-9.242674
 20
-15.629303
 11
2.328799
 21
-4.057879
  0
LINE
  8
_0-6_2-0
  6
CONTINUOUS
 62
    7
 10
-9.654526
 20
13.208255
 11
-10.103592
 21
13.657328
  0
LINE
  8
_0-6_2-0
  6
CONTINUOUS
 62
    7
 10
-10.103592
 20
13.657328
 11
-10.717045
 21
13.492953
  0
LINE
  8
_0-6_2-0
  6
CONTINUOUS
 62
    7
 10
-10.717045
 20
13.492953
 11
-10.881406
 21
12.879507
  0
LINE
  8
_0-6_2-0
  6
CONTINUOUS
 62
    7
 10
-10.881406
 20
12.879507
 11
-10.43234
 21
12.430434
  0
LINE
  8
_0-6_2-0
  6
CONTINUOUS
 62
    7
 10
-10.43234
 20
12.430434
 11
-9.818888
 21
12.594809
  0
LINE
  8
_0-6_2-0
  6
CONTINUOUS
 62
    7
 10
-9.818888
 20
12.594809
 11
-9.654526
 21
13.208255
  0
LINE
  8
_0-6_2-0
  6
CONTINUOUS
 62
    7
 10
-5.482591
 20
17.380183
 11
-5.931657
 21
17.829256
  0
LINE
  8
_0-6_2-0
  6
CONTINUOUS
 62
    7
 10
-5.931657
 20
17.829256
 11
-6.54511
 21
17.664882
  0
LINE
  8
_0-6_2-0
  6
CONTINUOUS
 62
    7
 10
-6.54511
 20
17.664882
 11
-6.709472
 21
17.051435
  0
LINE
  8
_0-6_2-0
  6
CONTINUOUS
 62
    7
 10
-6.709472
 20
17.051435
 11
-6.260406
 21
16.602363
  0
LINE
  8
_0-6_2-0
  6
CONTINUOUS
 62
    7
 10
-6.260406
 20
16.602363
 11
-5.646953
 21
16.766737
  0
LINE
  8
_0-6_2-0
  6
CONTINUOUS
 62
    7
 10
-5.646953
 20
16.766737
 11
-5.482591
 21
17.380183
  0
LINE
  8
_0-6_2-0
  6
CONTINUOUS
 62
    7
 10
27.880462
 20
14.42269
 11
24.344893
 21
17.958203
  0
LINE
  8
_0-6_2-0
  6
DASHED1
 62
    4
 10
26.865353
 20
13.443719
 11
23.330242
 21
16.978855
  0
LINE
  8
_0-6_2-0
  6
DASHED1
 62
    4
 10
26.73807
 20
13.316436
 11
23.202959
 21
16.851572
  0
LINE
  8
_0-6_2-0
  6
CENTER2
 62
    2
 10
26.571097
 20
12.476972
 11
27.565583
 21
13.471457
  0
LINE
  8
_0-6_2-0
  6
CENTER2
 62
    2
 10
22.399175
 20
16.648918
 11
23.393661
 21
17.643391
  0
LINE
  8
_0-6_2-0
  6
CONTINUOUS
 62
    7
 10
27.137957
 20
11.629626
 11
28.552175
 21
13.043825
  0
LINE
  8
_0-6_2-0
  6
CONTINUOUS
 62
    7
 10
28.552175
 20
13.043825
 11
22.966047
 21
18.629996
  0
LINE
  8
_0-6_2-0
  6
CONTINUOUS
 62
    7
 10
21.551817
 20
17.215778
 11
22.966047
 21
18.629996
  0
LINE
  8
_0-6_2-0
  6
CONTINUOUS
 62
    7
 10
27.137957
 20
11.629626
 11
21.551817
 21
17.215778
  0
LINE
  8
_0-6_2-0
  6
CENTER2
 62
    2
 10
27.674679
 20
12.50711
 11
22.51854
 21
17.663273
  0
LINE
  8
_0-6_2-0
  6
CONTINUOUS
 62
    7
 10
27.526895
 20
14.069123
 11
27.880462
 21
14.42269
  0
LINE
  8
_0-6_2-0
  6
CONTINUOUS
 62
    7
 10
23.991351
 20
17.604673
 11
24.344893
 21
17.958203
  0
LINE
  8
_0-6_2-0
  6
CONTINUOUS
 62
    7
 10
27.880437
 20
14.422665
 11
27.526895
 21
14.069123
  0
LINE
  8
_0-6_2-0
  6
CONTINUOUS
 62
    7
 10
24.344869
 20
17.958228
 11
23.991327
 21
17.604698
  0
LINE
  8
_0-6_2-0
  6
CONTINUOUS
 62
    7
 10
26.524517
 20
13.208206
 11
26.973583
 21
13.657278
  0
LINE
  8
_0-6_2-0
  6
CONTINUOUS
 62
    7
 10
26.973583
 20
13.657278
 11
27.587036
 21
13.492904
  0
LINE
  8
_0-6_2-0
  6
CONTINUOUS
 62
    7
 10
27.587036
 20
13.492904
 11
27.751397
 21
12.879457
  0
LINE
  8
_0-6_2-0
  6
CONTINUOUS
 62
    7
 10
27.751397
 20
12.879457
 11
27.302331
 21
12.430385
  0
LINE
  8
_0-6_2-0
  6
CONTINUOUS
 62
    7
 10
27.302331
 20
12.430385
 11
26.688878
 21
12.594759
  0
LINE
  8
_0-6_2-0
  6
CONTINUOUS
 62
    7
 10
26.688878
 20
12.594759
 11
26.524517
 21
13.208206
  0
LINE
  8
_0-6_2-0
  6
CONTINUOUS
 62
    7
 10
22.352595
 20
17.380146
 11
22.801661
 21
17.829219
  0
LINE
  8
_0-6_2-0
  6
CONTINUOUS
 62
    7
 10
22.801661
 20
17.829219
 11
23.415114
 21
17.664844
  0
LINE
  8
_0-6_2-0
  6
CONTINUOUS
 62
    7
 10
23.415114
 20
17.664844
 11
23.579475
 21
17.051392
  0
LINE
  8
_0-6_2-0
  6
CONTINUOUS
 62
    7
 10
23.579475
 20
17.051392
 11
23.130409
 21
16.602325
  0
LINE
  8
_0-6_2-0
  6
CONTINUOUS
 62
    7
 10
23.130409
 20
16.602325
 11
22.516957
 21
16.7667
  0
LINE
  8
_0-6_2-0
  6
CONTINUOUS
 62
    7
 10
22.516957
 20
16.7667
 11
22.352595
 21
17.380146
  0
LINE
  8
_0-6_2-0
  6
CONTINUOUS
 62
    7
 10
-11.010459
 20
-17.397069
 11
-7.47489
 21
-20.932576
  0
LINE
  8
_0-6_2-0
  6
DASHED1
 62
    4
 10
-9.995362
 20
-16.418098
 11
-6.460238
 21
-19.953221
  0
LINE
  8
_0-6_2-0
  6
DASHED1
 62
    4
 10
-9.868079
 20
-16.290815
 11
-6.332955
 21
-19.825938
  0
LINE
  8
_0-6_2-0
  6
CENTER2
 62
    2
 10
-9.701106
 20
-15.451351
 11
-10.695592
 21
-16.445836
  0
LINE
  8
_0-6_2-0
  6
CENTER2
 62
    2
 10
-5.529172
 20
-19.623285
 11
-6.523657
 21
-20.617758
  0
LINE
  8
_0-6_2-0
  6
CONTINUOUS
 62
    7
 10
-10.267966
 20
-14.604005
 11
-11.682184
 21
-16.01821
  0
LINE
  8
_0-6_2-0
  6
CONTINUOUS
 62
    7
 10
-11.682184
 20
-16.01821
 11
-6.096032
 21
-21.604362
  0
LINE
  8
_0-6_2-0
  6
CONTINUOUS
 62
    7
 10
-4.681814
 20
-20.190145
 11
-6.096032
 21
-21.604362
  0
LINE
  8
_0-6_2-0
  6
CONTINUOUS
 62
    7
 10
-10.267966
 20
-14.604005
 11
-4.681814
 21
-20.190145
  0
LINE
  8
_0-6_2-0
  6
CENTER2
 62
    2
 10
-10.804688
 20
-15.481489
 11
-5.648537
 21
-20.63764
  0
LINE
  8
_0-6_2-0
  6
CONTINUOUS
 62
    7
 10
-10.656892
 20
-17.043502
 11
-11.010459
 21
-17.397069
  0
LINE
  8
_0-6_2-0
  6
CONTINUOUS
 62
    7
 10
-7.121348
 20
-20.579046
 11
-7.47489
 21
-20.932576
  0
LINE
  8
_0-6_2-0
  6
CONTINUOUS
 62
    7
 10
-11.010434
 20
-17.397044
 11
-10.656892
 21
-17.043502
  0
LINE
  8
_0-6_2-0
  6
CONTINUOUS
 62
    7
 10
-7.474865
 20
-20.9326
 11
-7.121323
 21
-20.579071
  0
LINE
  8
_0-6_2-0
  6
CONTINUOUS
 62
    7
 10
-9.654526
 20
-16.182585
 11
-10.103592
 21
-16.631657
  0
LINE
  8
_0-6_2-0
  6
CONTINUOUS
 62
    7
 10
-10.103592
 20
-16.631657
 11
-10.717045
 21
-16.467283
  0
LINE
  8
_0-6_2-0
  6
CONTINUOUS
 62
    7
 10
-10.717045
 20
-16.467283
 11
-10.881406
 21
-15.853836
  0
LINE
  8
_0-6_2-0
  6
CONTINUOUS
 62
    7
 10
-10.881406
 20
-15.853836
 11
-10.43234
 21
-15.404764
  0
LINE
  8
_0-6_2-0
  6
CONTINUOUS
 62
    7
 10
-10.43234
 20
-15.404764
 11
-9.818888
 21
-15.569138
  0
LINE
  8
_0-6_2-0
  6
CONTINUOUS
 62
    7
 10
-9.818888
 20
-15.569138
 11
-9.654526
 21
-16.182585
  0
LINE
  8
_0-6_2-0
  6
CONTINUOUS
 62
    7
 10
-5.482591
 20
-20.354513
 11
-5.931657
 21
-20.803585
  0
LINE
  8
_0-6_2-0
  6
CONTINUOUS
 62
    7
 10
-5.931657
 20
-20.803585
 11
-6.54511
 21
-20.639211
  0
LINE
  8
_0-6_2-0
  6
CONTINUOUS
 62
    7
 10
-6.54511
 20
-20.639211
 11
-6.709472
 21
-20.025764
  0
LINE
  8
_0-6_2-0
  6
CONTINUOUS
 62
    7
 10
-6.709472
 20
-20.025764
 11
-6.260406
 21
-19.576692
  0
LINE
  8
_0-6_2-0
  6
CONTINUOUS
 62
    7
 10
-6.260406
 20
-19.576692
 11
-5.646953
 21
-19.741066
  0
LINE
  8
_0-6_2-0
  6
CONTINUOUS
 62
    7
 10
-5.646953
 20
-19.741066
 11
-5.482591
 21
-20.354513
  0
LINE
  8
_0-6_2-0
  6
CONTINUOUS
 62
    7
 10
27.880462
 20
-17.397019
 11
24.344893
 21
-20.932532
  0
LINE
  8
_0-6_2-0
  6
DASHED1
 62
    4
 10
26.865353
 20
-16.418048
 11
23.330242
 21
-19.953184
  0
LINE
  8
_0-6_2-0
  6
DASHED1
 62
    4
 10
26.73807
 20
-16.290765
 11
23.202959
 21
-19.825901
  0
LINE
  8
_0-6_2-0
  6
CENTER2
 62
    2
 10
26.571097
 20
-15.451301
 11
27.565583
 21
-16.445786
  0
LINE
  8
_0-6_2-0
  6
CENTER2
 62
    2
 10
22.399175
 20
-19.623248
 11
23.393661
 21
-20.617721
  0
LINE
  8
_0-6_2-0
  6
CONTINUOUS
 62
    7
 10
27.137957
 20
-14.603956
 11
28.552175
 21
-16.018155
  0
LINE
  8
_0-6_2-0
  6
CONTINUOUS
 62
    7
 10
28.552175
 20
-16.018155
 11
22.966047
 21
-21.604325
  0
LINE
  8
_0-6_2-0
  6
CONTINUOUS
 62
    7
 10
21.551817
 20
-20.190108
 11
22.966047
 21
-21.604325
  0
LINE
  8
_0-6_2-0
  6
CONTINUOUS
 62
    7
 10
27.137957
 20
-14.603956
 11
21.551817
 21
-20.190108
  0
LINE
  8
_0-6_2-0
  6
CENTER2
 62
    2
 10
27.674679
 20
-15.481439
 11
22.51854
 21
-20.637603
  0
LINE
  8
_0-6_2-0
  6
CONTINUOUS
 62
    7
 10
27.526895
 20
-17.043453
 11
27.880462
 21
-17.397019
  0
LINE
  8
_0-6_2-0
  6
CONTINUOUS
 62
    7
 10
23.991351
 20
-20.579003
 11
24.344893
 21
-20.932532
  0
LINE
  8
_0-6_2-0
  6
CONTINUOUS
 62
    7
 10
27.880437
 20
-17.396995
 11
27.526895
 21
-17.043453
  0
LINE
  8
_0-6_2-0
  6
CONTINUOUS
 62
    7
 10
24.344869
 20
-20.932557
 11
23.991327
 21
-20.579027
  0
LINE
  8
_0-6_2-0
  6
CONTINUOUS
 62
    7
 10
26.524517
 20
-16.182535
 11
26.973583
 21
-16.631608
  0
LINE
  8
_0-6_2-0
  6
CONTINUOUS
 62
    7
 10
26.973583
 20
-16.631608
 11
27.587036
 21
-16.467233
  0
LINE
  8
_0-6_2-0
  6
CONTINUOUS
 62
    7
 10
27.587036
 20
-16.467233
 11
27.751397
 21
-15.853787
  0
LINE
  8
_0-6_2-0
  6
CONTINUOUS
 62
    7
 10
27.751397
 20
-15.853787
 11
27.302331
 21
-15.404714
  0
LINE
  8
_0-6_2-0
  6
CONTINUOUS
 62
    7
 10
27.302331
 20
-15.404714
 11
26.688878
 21
-15.569089
  0
LINE
  8
_0-6_2-0
  6
CONTINUOUS
 62
    7
 10
26.688878
 20
-15.569089
 11
26.524517
 21
-16.182535
  0
LINE
  8
_0-6_2-0
  6
CONTINUOUS
 62
    7
 10
22.352595
 20
-20.354476
 11
22.801661
 21
-20.803548
  0
LINE
  8
_0-6_2-0
  6
CONTINUOUS
 62
    7
 10
22.801661
 20
-20.803548
 11
23.415114
 21
-20.639174
  0
LINE
  8
_0-6_2-0
  6
CONTINUOUS
 62
    7
 10
23.415114
 20
-20.639174
 11
23.579475
 21
-20.025721
  0
LINE
  8
_0-6_2-0
  6
CONTINUOUS
 62
    7
 10
23.579475
 20
-20.025721
 11
23.130409
 21
-19.576655
  0
LINE
  8
_0-6_2-0
  6
CONTINUOUS
 62
    7
 10
23.130409
 20
-19.576655
 11
22.516957
 21
-19.741029
  0
LINE
  8
_0-6_2-0
  6
CONTINUOUS
 62
    7
 10
22.516957
 20
-19.741029
 11
22.352595
 21
-20.354476
  0
LINE
  8
_0-7_2-1
  6
CONTINUOUS
 62
    4
 10
18.459723
 20
21.722041
 11
-14.774241
 21
-11.511923
  0
LINE
  8
_0-7_2-1
  6
CONTINUOUS
 62
    4
 10
24.904343
 20
15.277421
 11
18.459723
 21
21.722041
  0
LINE
  8
_0-7_2-1
  6
CONTINUOUS
 62
    4
 10
-8.329621
 20
-17.956546
 11
-14.774241
 21
-11.511923
  0
LINE
  8
_0-7_2-1
  6
CONTINUOUS
 62
    4
 10
26.373343
 20
20.623068
 11
30.545278
 21
16.45114
  0
LINE
  8
_0-7_2-1
  6
CONTINUOUS
 62
    4
 10
23.133515
 20
17.383246
 11
26.373343
 21
20.623068
  0
LINE
  8
_0-7_2-1
  6
CONTINUOUS
 62
    4
 10
27.305449
 20
13.211317
 11
30.545265
 21
16.451146
  0
LINE
  8
_0-7_2-1
  6
CONTINUOUS
 62
    4
 10
-1.94539
 20
-26.46215
 11
33.409938
 21
8.893177
  0
LINE
  8
_0-7_2-1
  6
CONTINUOUS
 62
    4
 10
-9.344038
 20
-19.063502
 11
-1.94539
 21
-26.46215
  0
LINE
  8
_0-7_2-1
  6
CONTINUOUS
 62
    4
 10
26.011289
 20
16.291826
 11
33.409938
 21
8.893177
  0
LINE
  8
_0-7_2-1
  6
CONTINUOUS
 62
    4
 10
27.194744
 20
-23.782439
 11
30.730313
 21
-20.246867
  0
LINE
  8
_0-7_2-1
  6
CONTINUOUS
 62
    4
 10
24.247019
 20
-20.834707
 11
27.194744
 21
-23.782439
  0
LINE
  8
_0-7_2-1
  6
CONTINUOUS
 62
    4
 10
27.782587
 20
-17.299135
 11
30.730313
 21
-20.246867
  0
LINE
  8
_0-3_1-0
  6
CONTINUOUS
 62
    7
 10
37.581922
 20
15.084363
 11
83.020196
 21
15.084363
  0
LINE
  8
_0-3_1-0
  6
CONTINUOUS
 62
    7
 10
37.581922
 20
15.084363
 11
30.419238
 21
13.293696
  0
LINE
  8
_0-3_1-0
  6
CONTINUOUS
 62
    4
 10
30.419238
 20
13.293696
 11
33.04218
 21
14.749781
  0
LINE
  8
_0-3_1-0
  6
CONTINUOUS
 62
    4
 10
30.419238
 20
13.293696
 11
33.418815
 21
13.243237
  0
ARC
  8
_0-5_1-2
  6
CONTINUOUS
 62
    7
 10
4.677795
 20
59.757841
 40
2.54
 50
343.91213
 51
15.753479
  0
ARC
  8
_0-5_1-2
  6
CONTINUOUS
 62
    7
 10
4.677795
 20
49.957844
 40
2.54
 50
343.91213
 51
15.753479
  0
ARC
  8
_0-5_1-2
  6
CONTINUOUS
 62
    7
 10
4.677795
 20
40.156134
 40
2.54
 50
344.24652
 51
16.08786
  0
ARC
  8
_0-5_1-2
  6
CONTINUOUS
 62
    7
 10
4.677795
 20
49.956137
 40
2.54
 50
344.24652
 51
16.08786
  0
ARC
  8
_0-5_1-2
  6
CONTINUOUS
 62
    7
 10
4.677795
 20
79.357851
 40
2.54
 50
343.91213
 51
15.753479
  0
ARC
  8
_0-5_1-2
  6
CONTINUOUS
 62
    7
 10
4.677795
 20
69.556141
 40
2.54
 50
344.24652
 51
16.08786
  0
ARC
  8
_0-5_1-2
  6
CONTINUOUS
 62
    7
 10
4.677795
 20
79.356141
 40
2.54
 50
344.24652
 51
16.08786
  0
ARC
  8
_0-5_1-2
  6
CONTINUOUS
 62
    7
 10
4.677795
 20
89.157851
 40
2.54
 50
343.91213
 51
15.753479
  0
ARC
  8
_0-5_1-2
  6
CONTINUOUS
 62
    7
 10
4.677795
 20
79.357851
 40
2.54
 50
343.91213
 51
15.753479
  0
ARC
  8
_0-5_1-2
  6
CONTINUOUS
 62
    7
 10
4.677795
 20
69.556141
 40
2.54
 50
344.24652
 51
16.08786
  0
ARC
  8
_0-5_1-2
  6
CONTINUOUS
 62
    7
 10
4.677795
 20
79.356141
 40
2.54
 50
344.24652
 51
16.08786
  0
CIRCLE
  8
_0-5_1-2
  6
CONTINUOUS
 62
    7
 10
9.647302
 20
123.75352
 40
0.3
  0
CIRCLE
  8
_0-5_1-2
  6
CONTINUOUS
 62
    7
 10
4.14914
 20
119.55582
 40
0.175
  0
ARC
  8
_0-5_1-2
  6
CONTINUOUS
 62
    7
 10
4.14914
 20
119.56758
 40
0.375
 50
90.380935
 51
273.44444
  0
CIRCLE
  8
_0-5_1-2
  6
CONTINUOUS
 62
    7
 10
4.146566
 20
117.0655
 40
0.6
  0
CIRCLE
  8
_0-5_1-2
  6
CONTINUOUS
 62
    7
 10
4.15055
 20
117.08445
 40
0.25
  0
CIRCLE
  8
_0-5_1-2
  6
CONTINUOUS
 62
    7
 10
4.15055
 20
102.48446
 40
0.25
  0
CIRCLE
  8
_0-5_1-2
  6
CONTINUOUS
 62
    7
 10
5.651669
 20
103.23188
 40
0.15
  0
CIRCLE
  8
_0-5_1-2
  6
CONTINUOUS
 62
    7
 10
5.654415
 20
99.727791
 40
0.15
  0
CIRCLE
  8
_0-5_1-2
  6
CONTINUOUS
 62
    7
 10
5.653054
 20
103.23188
 40
0.3
  0
CIRCLE
  8
_0-5_1-2
  6
CONTINUOUS
 62
    7
 10
5.651273
 20
99.730931
 40
0.3
  0
ARC
  8
_0-5_1-2
  6
CONTINUOUS
 62
    7
 10
5.001793
 20
103.20715
 40
0.15
 50
270
 51
0
  0
ARC
  8
_0-5_1-2
  6
CONTINUOUS
 62
    7
 10
4.146566
 20
102.46548
 40
0.6
 50
78.134292
 51
215.69966
  0
ARC
  8
_0-5_1-2
  6
CONTINUOUS
 62
    7
 10
5.655826
 20
103.2345
 40
0.5
 50
359.2647
 51
187.17597
  0
CIRCLE
  8
_0-5_1-2
  6
CONTINUOUS
 62
    7
 10
14.889426
 20
130.50896
 40
0.5
  0
CIRCLE
  8
_0-5_1-2
  6
CONTINUOUS
 62
    7
 10
-17.559486
 20
130.50674
 40
0.25
  0
CIRCLE
  8
_0-5_1-2
  6
CONTINUOUS
 62
    7
 10
-13.854718
 20
132.13919
 40
2
  0
CIRCLE
  8
_0-5_1-2
  6
CONTINUOUS
 62
    7
 10
-13.854718
 20
132.13919
 40
1
  0
CIRCLE
  8
_0-5_1-2
  6
CONTINUOUS
 62
    7
 10
-8.381052
 20
132.13919
 40
2
  0
CIRCLE
  8
_0-5_1-2
  6
CONTINUOUS
 62
    7
 10
-8.381052
 20
132.13919
 40
1
  0
ARC
  8
_0-5_1-2
  6
CONTINUOUS
 62
    7
 10
-17.157891
 20
138.4077
 40
0.2
 50
90
 51
180
  0
ARC
  8
_0-5_1-2
  6
CONTINUOUS
 62
    7
 10
-16.897893
 20
138.14769
 40
0.2
 50
90
 51
180
  0
ARC
  8
_0-5_1-2
  6
CONTINUOUS
 62
    7
 10
6.942104
 20
138.4077
 40
0.2
 50
0
 51
90
  0
ARC
  8
_0-5_1-2
  6
CONTINUOUS
 62
    7
 10
6.682095
 20
138.14769
 40
0.2
 50
0
 51
90
  0
CIRCLE
  8
_0-5_1-2
  6
CONTINUOUS
 62
    7
 10
-18.684174
 20
130.52009
 40
0.5
  0
CIRCLE
  8
_0-5_1-2
  6
CONTINUOUS
 62
    7
 10
-18.684174
 20
130.52009
 40
0.25
  0
ARC
  8
_0-5_1-2
  6
CONTINUOUS
 62
    7
 10
-17.56248
 20
130.50896
 40
0.5
 50
196.08773
 51
196.41511
  0
ARC
  8
_0-5_1-2
  6
CONTINUOUS
 62
    7
 10
-17.56248
 20
130.50896
 40
0.5
 50
341.88282
 51
342.14547
  0
ARC
  8
_0-5_1-2
  6
CONTINUOUS
 62
    7
 10
-17.56248
 20
130.50896
 40
0.5
 50
14.097808
 51
179.99716
  0
CIRCLE
  8
_0-5_1-2
  6
CONTINUOUS
 62
    7
 10
-17.557716
 20
130.50757
 40
0.25
  0
CIRCLE
  8
_0-5_1-2
  6
CONTINUOUS
 62
    7
 10
14.892284
 20
130.50757
 40
0.25
  0
CIRCLE
  8
_0-5_1-2
  6
CONTINUOUS
 62
    7
 10
-19.557698
 20
170.50755
 40
0.25
  0
CIRCLE
  8
_0-5_1-2
  6
CONTINUOUS
 62
    7
 10
-17.557741
 20
168.18483
 40
0.25
  0
CIRCLE
  8
_0-5_1-2
  6
CONTINUOUS
 62
    7
 10
-17.557741
 20
164.68485
 40
0.25
  0
ARC
  8
_0-5_1-2
  6
CONTINUOUS
 62
    7
 10
-16.157727
 20
164.10756
 40
1
 50
40.737106
 51
154.90925
  0
ARC
  8
_0-5_1-2
  6
CONTINUOUS
 62
    7
 10
-17.557729
 20
164.68485
 40
0.5
 50
189.62715
 51
342.30059
  0
ARC
  8
_0-5_1-2
  6
CONTINUOUS
 62
    7
 10
-19.557698
 20
170.50753
 40
1.225
 50
136.68455
 51
154.71073
  0
ARC
  8
_0-5_1-2
  6
DASHED1
 62
    7
 10
-19.557698
 20
170.50753
 40
1.125
 50
132.90589
 51
158.18664
  0
ARC
  8
_0-5_1-2
  6
CONTINUOUS
 62
    7
 10
-19.557698
 20
170.50753
 40
1.125
 50
160.36701
 51
243.19856
  0
ARC
  8
_0-5_1-2
  6
DASHED1
 62
    7
 10
-19.557698
 20
170.50753
 40
1.125
 50
245.67387
 51
18.20906
  0
ARC
  8
_0-5_1-2
  6
CONTINUOUS
 62
    7
 10
-19.557698
 20
170.50753
 40
1.125
 50
24.827331
 51
130.70193
  0
ARC
  8
_0-5_1-2
  6
DASHED1
 62
    7
 10
-17.557741
 20
168.18478
 40
1.125
 50
80.708587
 51
353.51597
  0
ARC
  8
_0-5_1-2
  6
CONTINUOUS
 62
    7
 10
-17.557741
 20
168.18478
 40
1.125
 50
357.16522
 51
77.570388
  0
ARC
  8
_0-5_1-2
  6
CONTINUOUS
 62
    7
 10
-17.557729
 20
130.50759
 40
0.5
 50
173.66824
 51
2.397675
  0
CIRCLE
  8
_0-5_1-2
  6
CONTINUOUS
 62
    7
 10
19.288807
 20
136.66679
 40
0.15
  0
CIRCLE
  8
_0-5_1-2
  6
CONTINUOUS
 62
    7
 10
-5.348343
 20
130.50779
 40
0.25
  0
ARC
  8
_0-5_1-2
  6
CONTINUOUS
 62
    7
 10
19.287657
 20
136.66526
 40
0.3
 50
108.30924
 51
106.91384
  0
CIRCLE
  8
_0-5_1-2
  6
CONTINUOUS
 62
    7
 10
158.72667
 20
186.99644
 40
1
  0
ARC
  8
_0-5_1-2
  6
CONTINUOUS
 62
    7
 10
-5.348343
 20
130.50767
 40
0.5
 50
61.542343
 51
299.26713
  0
CIRCLE
  8
_0-5_1-2
  6
CONTINUOUS
 62
    7
 10
159.40153
 20
146.09749
 40
0.03
  0
ARC
  8
_0-5_1-2
  6
CONTINUOUS
 62
    7
 10
159.65174
 20
145.44712
 40
0.2
 50
176.68438
 51
46.467849
  0
ARC
  8
_0-5_1-2
  6
CONTINUOUS
 62
    7
 10
159.77655
 20
145.40213
 40
0.575
 50
176.00732
 51
31.72647
  0
ARC
  8
_0-5_1-2
  6
CONTINUOUS
 62
    7
 10
159.40153
 20
146.09749
 40
0.065
 50
271.53414
 51
180.27139
  0
ARC
  8
_0-5_1-2
  6
CONTINUOUS
 62
    7
 10
159.33487
 20
145.76478
 40
0.04
 50
270
 51
354.5857
  0
CIRCLE
  8
_0-5_1-2
  6
CONTINUOUS
 62
    7
 10
7.584848
 20
214.63174
 40
0.14
  0
CIRCLE
  8
_0-5_1-2
  6
CONTINUOUS
 62
    7
 10
6.960508
 20
213.69372
 40
0.14
  0
CIRCLE
  8
_0-5_1-2
  6
CONTINUOUS
 62
    7
 10
8.537046
 20
215.26625
 40
0.14
  0
CIRCLE
  8
_0-5_1-2
  6
CONTINUOUS
 62
    7
 10
7.604742
 20
210.50956
 40
0.14
  0
CIRCLE
  8
_0-5_1-2
  6
CONTINUOUS
 62
    7
 10
8.542737
 20
209.88522
 40
0.14
  0
CIRCLE
  8
_0-5_1-2
  6
CONTINUOUS
 62
    7
 10
6.970207
 20
211.46176
 40
0.14
  0
CIRCLE
  8
_0-5_1-2
  6
CONTINUOUS
 62
    7
 10
11.752081
 20
210.50427
 40
0.14
  0
CIRCLE
  8
_0-5_1-2
  6
CONTINUOUS
 62
    7
 10
12.376396
 20
211.44229
 40
0.14
  0
CIRCLE
  8
_0-5_1-2
  6
CONTINUOUS
 62
    7
 10
10.799883
 20
209.86978
 40
0.14
  0
CIRCLE
  8
_0-5_1-2
  6
CONTINUOUS
 62
    7
 10
11.782541
 20
214.62644
 40
0.14
  0
CIRCLE
  8
_0-5_1-2
  6
CONTINUOUS
 62
    7
 10
10.844521
 20
215.25078
 40
0.14
  0
CIRCLE
  8
_0-5_1-2
  6
CONTINUOUS
 62
    7
 10
12.417026
 20
213.67422
 40
0.14
  0
ARC
  8
_0-5_1-2
  6
CONTINUOUS
 62
    7
 10
9.634689
 20
212.57989
 40
2.685
 50
35.697265
 51
126.54811
  0
ARC
  8
_0-5_1-2
  6
CONTINUOUS
 62
    7
 10
9.667722
 20
212.54686
 40
3.3
 50
25.908798
 51
57.294479
  0
ARC
  8
_0-5_1-2
  6
CONTINUOUS
 62
    7
 10
9.638982
 20
212.57405
 40
3.35
 50
25.045043
 51
56.124038
  0
ARC
  8
_0-5_1-2
  6
CONTINUOUS
 62
    7
 10
9.667722
 20
212.54686
 40
3.3
 50
122.33361
 51
134.98545
  0
ARC
  8
_0-5_1-2
  6
CONTINUOUS
 62
    7
 10
9.638982
 20
212.57405
 40
3.35
 50
123.97126
 51
136.55886
  0
ARC
  8
_0-5_1-2
  6
CONTINUOUS
 62
    7
 10
9.634689
 20
212.57989
 40
2.685
 50
146.52221
 51
213.66311
  0
ARC
  8
_0-5_1-2
  6
CONTINUOUS
 62
    7
 10
9.634689
 20
212.57989
 40
2.685
 50
234.3086
 51
13.548065
  0
ARC
  8
_0-5_1-2
  6
CONTINUOUS
 62
    7
 10
9.667722
 20
212.54686
 40
3.3
 50
150.06121
 51
208.51379
  0
ARC
  8
_0-5_1-2
  6
CONTINUOUS
 62
    7
 10
9.638982
 20
212.57405
 40
3.35
 50
150.91915
 51
208.34729
  0
ARC
  8
_0-5_1-2
  6
CONTINUOUS
 62
    7
 10
9.667722
 20
212.54686
 40
3.3
 50
224.73313
 51
235.96926
  0
ARC
  8
_0-5_1-2
  6
CONTINUOUS
 62
    7
 10
9.638982
 20
212.57405
 40
3.35
 50
223.4477
 51
234.16018
  0
ARC
  8
_0-5_1-2
  6
CONTINUOUS
 62
    7
 10
9.638982
 20
212.57405
 40
3.35
 50
305.30831
 51
335.71954
  0
ARC
  8
_0-5_1-2
  6
CONTINUOUS
 62
    7
 10
9.638982
 20
212.57405
 40
3.35
 50
351.48501
 51
8.535736
  0
ARC
  8
_0-5_1-2
  6
CONTINUOUS
 62
    7
 10
9.667722
 20
212.54686
 40
3.3
 50
303.56892
 51
334.98248
  0
ARC
  8
_0-5_1-2
  6
CONTINUOUS
 62
    7
 10
9.667722
 20
212.54686
 40
3.3
 50
351.5404
 51
10.032836
  0
ARC
  8
_0-3_1-0
  6
CONTINUOUS
 62
    7
 10
9.651032
 20
212.5669
 40
29.8
 50
164.57441
 51
232.90101
  0
CIRCLE
  8
_0-6_2-0
  6
CONTINUOUS
 62
    7
 10
8.468128
 20
-1.527504
 40
6.6
  0
CIRCLE
  8
_0-6_2-0
  6
CONTINUOUS
 62
    7
 10
8.402061
 20
-1.46145
 40
5.37
  0
CIRCLE
  8
_0-6_2-0
  6
CONTINUOUS
 62
    7
 10
4.302379
 20
2.642241
 40
0.28
  0
CIRCLE
  8
_0-6_2-0
  6
CONTINUOUS
 62
    7
 10
3.053699
 20
0.766214
 40
0.28
  0
CIRCLE
  8
_0-6_2-0
  6
CONTINUOUS
 62
    7
 10
6.206775
 20
3.911261
 40
0.28
  0
CIRCLE
  8
_0-6_2-0
  6
CONTINUOUS
 62
    7
 10
4.342168
 20
-5.602126
 40
0.28
  0
CIRCLE
  8
_0-6_2-0
  6
CONTINUOUS
 62
    7
 10
6.218157
 20
-6.850782
 40
0.28
  0
CIRCLE
  8
_0-6_2-0
  6
CONTINUOUS
 62
    7
 10
3.073098
 20
-3.697699
 40
0.28
  0
CIRCLE
  8
_0-6_2-0
  6
CONTINUOUS
 62
    7
 10
12.636845
 20
-5.612692
 40
0.28
  0
CIRCLE
  8
_0-6_2-0
  6
CONTINUOUS
 62
    7
 10
13.885476
 20
-3.736646
 40
0.28
  0
CIRCLE
  8
_0-6_2-0
  6
CONTINUOUS
 62
    7
 10
10.732449
 20
-6.881687
 40
0.28
  0
CIRCLE
  8
_0-6_2-0
  6
CONTINUOUS
 62
    7
 10
12.697765
 20
2.631663
 40
0.28
  0
CIRCLE
  8
_0-6_2-0
  6
CONTINUOUS
 62
    7
 10
10.821726
 20
3.880343
 40
0.28
  0
CIRCLE
  8
_0-6_2-0
  6
CONTINUOUS
 62
    7
 10
13.966735
 20
0.72723
 40
0.28
  0
CIRCLE
  8
_0-6_2-0
  6
CONTINUOUS
 62
    7
 10
-10.267966
 20
13.043881
 40
0.36
  0
CIRCLE
  8
_0-6_2-0
  6
CONTINUOUS
 62
    7
 10
-6.096032
 20
17.215815
 40
0.36
  0
CIRCLE
  8
_0-6_2-0
  6
CONTINUOUS
 62
    7
 10
27.137957
 20
13.043832
 40
0.36
  0
CIRCLE
  8
_0-6_2-0
  6
CONTINUOUS
 62
    7
 10
22.966035
 20
17.215778
 40
0.36
  0
CIRCLE
  8
_0-6_2-0
  6
CONTINUOUS
 62
    7
 10
-10.267966
 20
-16.01821
 40
0.36
  0
CIRCLE
  8
_0-6_2-0
  6
CONTINUOUS
 62
    7
 10
-6.096032
 20
-20.190145
 40
0.36
  0
CIRCLE
  8
_0-6_2-0
  6
CONTINUOUS
 62
    7
 10
27.137957
 20
-16.018161
 40
0.36
  0
CIRCLE
  8
_0-6_2-0
  6
CONTINUOUS
 62
    7
 10
22.966035
 20
-20.190108
 40
0.36
  0
TEXT
  8
_0-1_0-0
 62
    7
 10
261.15329
 20
9.39929
 40
2.5
 41
1
 50
0
  1
DESCRIPTION
  0
TEXT
  8
_0-1_0-0
 62
    7
 10
295.82718
 20
9.643486
 40
2.5
 41
1
 50
0
  1
MATL
  0
TEXT
  8
_0-1_0-0
 62
    7
 10
309.01303
 20
9.39929
 40
2.5
 41
1
 50
0
  1
QTY
  0
TEXT
  8
_0-1_0-0
 62
    7
 10
318.70049
 20
9.39929
 40
2.5
 41
1
 50
0
  1
WEIGHT
  0
TEXT
  8
_0-1_0-0
 62
    7
 10
334.6522
 20
9.155111
 40
2.5
 41
1
 50
0
  1
NOTE
  0
TEXT
  8
_0-1_0-0
 62
    7
 10
306.81544
 20
2.064846
 40
2.5
 41
1
 50
0
  1
APPROVED  BY
  0
TEXT
  8
_0-1_0-0
 62
    7
 10
307.30376
 20
-4.528067
 40
2.5
 41
1
 50
0
  1
CHECKED   BY
  0
TEXT
  8
_0-1_0-0
 62
    7
 10
307.79213
 20
-11.609365
 40
2.5
 41
1
 50
0
  1
DESIGNED  BY
  0
TEXT
  8
_0-1_0-0
 62
    7
 10
307.79213
 20
-18.2023
 40
2.5
 41
1
 50
0
  1
DRAWN     BY
  0
TEXT
  8
_0-1_0-0
 62
    7
 10
324.64073
 20
-26.251347
 40
2.5
 41
1
 50
0
  1
DRAWING  NO
  0
TEXT
  8
_0-1_0-0
 62
    7
 10
261.64166
 20
1.829627
 40
2.5
 41
1
 50
0
  1
TITLE
  0
TEXT
  8
_0-1_0-0
 62
    7
 10
239.90947
 20
-11.356222
 40
2.5
 41
1
 50
0
  1
PRODUCTION NO
  0
TEXT
  8
_0-1_0-0
 62
    7
 10
239.90947
 20
-18.437502
 40
2.5
 41
1
 50
0
  1
SCALE
  0
TEXT
  8
_0-1_0-0
 62
    7
 10
282.88083
 20
-18.437502
 40
2.5
 41
1
 50
0
  1
DATE
  0
TEXT
  8
_0-1_0-0
 62
    7
 10
248.94414
 20
-30.402445
 40
4
 41
1
 50
0
  1
MATSUDA ENGRG CO.LTD.
  0
TEXT
  8
_0-1_0-0
 62
    7
 10
257.97896
 20
-35.286101
 40
2.5
 41
1
 50
0
  1
MATSUDO CHIBA JAPAN
  0
TEXT
  8
_0-1_0-0
 62
    7
 10
240.88614
 20
-30.646631
 40
3
 41
1
 50
0
  1
MEC
  0
TEXT
  8
_0-1_0-0
 62
    7
 10
137.52435
 20
241.7957
 40
3
 41
1
 50
0
  1
MEC
  0
TEXT
  8
_0-1_0-0
 62
    7
 10
238.67836
 20
5.719672
 40
3
 41
1
 50
0
  1
符号
  0
TEXT
  8
_0-1_0-0
 62
    7
 10
240.79313
 20
9.473689
 40
2.5
 41
1
 50
0
  1
No
  0
TEXT
  8
_0-1_0-0
 62
    7
 10
260.17969
 20
5.714642
 40
3
 41
1
 50
0
  1
名　　　称
  0
TEXT
  8
_0-1_0-0
 62
    7
 10
293.28051
 20
5.714642
 40
3
 41
1
 50
0
  1
材　質
  0
TEXT
  8
_0-1_0-0
 62
    7
 10
306.39588
 20
5.506456
 40
3
 41
1
 50
0
  1
個　数
  0
TEXT
  8
_0-1_0-0
 62
    7
 10
318.26225
 20
5.506456
 40
3
 41
1
 50
0
  1
重　量
  0
TEXT
  8
_0-1_0-0
 62
    7
 10
332.05781
 20
5.805208
 40
3
 41
1
 50
0
  1
摘　　要
  0
TEXT
  8
_0-1_0-0
 62
    7
 10
309.20967
 20
-1.231532
 40
3
 41
1
 50
0
  1
承　　認
  0
TEXT
  8
_0-1_0-0
 62
    7
 10
309.14046
 20
-8.08962
 40
3
 41
1
 50
0
  1
検　　図
  0
TEXT
  8
_0-1_0-0
 62
    7
 10
309.22041
 20
-15.040846
 40
3
 41
1
 50
0
  1
設　　計
  0
TEXT
  8
_0-1_0-0
 62
    7
 10
309.26252
 20
-21.817448
 40
3
 41
1
 50
0
  1
製　　図
  0
TEXT
  8
_0-1_0-0
 62
    7
 10
309.42999
 20
-26.338599
 40
3
 41
1
 50
0
  1
図　　番
  0
TEXT
  8
_0-1_0-0
 62
    7
 10
244.19498
 20
1.193716
 40
3
 41
1
 50
0
  1
名　　称
  0
TEXT
  8
_0-1_0-0
 62
    7
 10
243.53902
 20
-14.848977
 40
3
 41
1
 50
0
  1
製　　番
  0
TEXT
  8
_0-1_0-0
 62
    7
 10
240.24304
 20
-21.836503
 40
3
 41
1
 50
0
  1
尺　度
  0
TEXT
  8
_0-1_0-0
 62
    7
 10
281.41332
 20
-21.836503
 40
3
 41
1
 50
0
  1
日　付
  0
TEXT
  8
_0-1_0-0
 62
    7
 10
265.78133
 20
-7.915747
 40
3
 41
1
 50
0
  1
組立外形図
  0
TEXT
  8
_0-2_0-2
 62
    7
 10
227.63707
 20
221.19263
 40
3
 41
1
 50
0
  1
型　　　　　式
  0
TEXT
  8
_0-2_0-2
 62
    7
 10
227.63707
 20
216.19264
 40
3
 41
1
 50
0
  1
定　格　荷　重
  0
TEXT
  8
_0-2_0-2
 62
    7
 10
227.63707
 20
211.19267
 40
3
 41
1
 50
0
  1
旋　回　半　径
  0
TEXT
  8
_0-2_0-2
 62
    7
 10
227.63707
 20
206.19263
 40
3
 41
1
 50
0
  1
揚　　　　　程
  0
TEXT
  8
_0-2_0-2
 62
    7
 10
222.16004
 20
193.69264
 40
3
 41
1
 50
0
  1
速　度
  0
TEXT
  8
_0-2_0-2
 62
    7
 10
222.16004
 20
173.69264
 40
3
 41
1
 50
0
  1
電動機
  0
TEXT
  8
_0-2_0-2
 62
    7
 10
227.63707
 20
161.19263
 40
3
 41
1
 50
0
  1
安　全　装　置
  0
TEXT
  8
_0-2_0-2
 62
    7
 10
227.63707
 20
156.19264
 40
3
 41
1
 50
0
  1
ｸﾗｲﾐﾝｸﾞ方式
  0
TEXT
  8
_0-2_0-2
 62
    7
 10
227.63707
 20
151.19265
 40
3
 41
1
 50
0
  1
操　作　方　式
  0
TEXT
  8
_0-2_0-2
 62
    7
 10
227.63707
 20
146.19263
 40
3
 41
1
 50
0
  1
電　　　　　源
  0
TEXT
  8
_0-2_0-2
 62
    7
 10
262.98593
 20
161.04879
 40
3
 41
1
 50
0
  1
過巻，起伏，旋回，荷重　　　　　各制限装置
  0
TEXT
  8
_0-2_0-2
 62
    7
 10
262.98593
 20
156.04878
 40
3
 41
1
 50
0
  1
油圧式ｾﾙﾌｸﾗｲﾐﾝｸﾞ
  0
TEXT
  8
_0-2_0-2
 62
    7
 10
262.98593
 20
151.04881
 40
3
 41
1
 50
0
  1
ﾌﾟｯｼｭﾎﾞﾀﾝﾘﾓｰﾄｺﾝﾄﾛｰﾙ
  0
TEXT
  8
_0-2_0-2
 62
    7
 10
262.98593
 20
146.04879
 40
3
 41
1
 50
0
  1
200/220V  50/60HZ
  0
TEXT
  8
_0-2_0-2
 62
    7
 10
241.59911
 20
166.21662
 40
3
 41
1
 50
0
  1
ｸﾗｲﾐﾝｸﾞ
  0
TEXT
  8
_0-2_0-2
 62
    7
 10
241.59911
 20
181.21662
 40
3
 41
1
 50
0
  1
巻　上
  0
TEXT
  8
_0-2_0-2
 62
    7
 10
241.59911
 20
176.21663
 40
3
 41
1
 50
0
  1
起　伏
  0
TEXT
  8
_0-2_0-2
 62
    7
 10
241.59911
 20
171.21661
 40
3
 41
1
 50
0
  1
旋　回
  0
TEXT
  8
_0-2_0-2
 62
    7
 10
241.59911
 20
186.21661
 40
3
 41
1
 50
0
  1
ｸﾗｲﾐﾝｸﾞ
  0
TEXT
  8
_0-2_0-2
 62
    7
 10
241.59911
 20
201.21661
 40
3
 41
1
 50
0
  1
巻　上
  0
TEXT
  8
_0-2_0-2
 62
    7
 10
241.59911
 20
196.21662
 40
3
 41
1
 50
0
  1
起　伏
  0
TEXT
  8
_0-2_0-2
 62
    7
 10
241.59911
 20
191.21663
 40
3
 41
1
 50
0
  1
旋　回
  0
TEXT
  8
_0-2_0-2
 62
    7
 10
257.96414
 20
226.00011
 40
3
 41
1
 50
0
  1
仕　　　　　　　　　　　様
  0
TEXT
  8
_0-2_0-2
 62
    7
 10
323.67257
 20
201.04823
 40
3
 41
1
 50
0
  1
Ｍ／min
  0
TEXT
  8
_0-2_0-2
 62
    7
 10
323.67257
 20
196.29974
 40
3
 41
1
 50
0
  1
Ｍ／min
  0
TEXT
  8
_0-2_0-2
 62
    7
 10
323.65273
 20
191.319
 40
3
 41
1
 50
0
  1
R.P.M
  0
TEXT
  8
_0-2_0-2
 62
    7
 10
330.47294
 20
181.36543
 40
3
 41
1
 50
0
  1
Ｐ
  0
TEXT
  8
_0-2_0-2
 62
    7
 10
330.47294
 20
176.36539
 40
3
 41
1
 50
0
  1
Ｐ
  0
TEXT
  8
_0-2_0-2
 62
    7
 10
330.47294
 20
171.3654
 40
3
 41
1
 50
0
  1
Ｐ
  0
TEXT
  8
_0-2_0-2
 62
    7
 10
330.47294
 20
166.36538
 40
3
 41
1
 50
0
  1
Ｐ
  0
TEXT
  8
_0-2_0-2
 62
    7
 10
293.0298
 20
181.32379
 40
3
 41
1
 50
0
  1
kw
  0
TEXT
  8
_0-2_0-2
 62
    7
 10
293.0298
 20
176.3238
 40
3
 41
1
 50
0
  1
kw
  0
TEXT
  8
_0-2_0-2
 62
    7
 10
293.0298
 20
171.32376
 40
3
 41
1
 50
0
  1
kw
  0
TEXT
  8
_0-2_0-2
 62
    7
 10
293.0298
 20
166.32376
 40
3
 41
1
 50
0
  1
kw
  0
TEXT
  8
_0-2_0-2
 62
    7
 10
314.5806
 20
181.32379
 40
3
 41
1
 50
0
  1
４
  0
TEXT
  8
_0-2_0-2
 62
    7
 10
314.5806
 20
176.3238
 40
3
 41
1
 50
0
  1
４
  0
TEXT
  8
_0-2_0-2
 62
    7
 10
314.5806
 20
171.32376
 40
3
 41
1
 50
0
  1
４
  0
TEXT
  8
_0-2_0-2
 62
    7
 10
314.5806
 20
166.32376
 40
3
 41
1
 50
0
  1
４
  0
TEXT
  8
_0-2_0-2
 62
    7
 10
283.53709
 20
220.91738
 40
4
 41
1
 50
0
  1
ＶＣＡ－１５
  0
TEXT
  8
_0-2_0-2
 62
    7
 10
270.86522
 20
210.91737
 40
3
 41
1
 50
0
  1
８．0ｍ
  0
TEXT
  8
_0-2_0-2
 62
    7
 10
310.86522
 20
210.91737
 40
3
 41
1
 50
0
  1
１５．０ｍ
  0
TEXT
  8
_0-2_0-2
 62
    7
 10
282.56545
 20
206.24125
 40
3
 41
1
 50
0
  1
７０ｍ（５０ｍ）
  0
TEXT
  8
_0-2_0-2
 62
    7
 10
272.53764
 20
216.50637
 40
3
 41
1
 50
0
  1
(2.00t)
  0
TEXT
  8
_0-2_0-2
 62
    7
 10
310.86522
 20
216.24123
 40
3
 41
1
 50
0
  1
１．００ｔ
  0
TEXT
  8
_0-2_0-2
 62
    7
 10
271.87726
 20
181.24127
 40
3
 41
1
 50
0
  1
４
  0
TEXT
  8
_0-2_0-2
 62
    7
 10
271.87726
 20
176.24125
 40
3
 41
1
 50
0
  1
４
  0
TEXT
  8
_0-2_0-2
 62
    7
 10
271.87726
 20
171.24126
 40
3
 41
1
 50
0
  1
０．５
  0
TEXT
  8
_0-2_0-2
 62
    7
 10
271.87726
 20
166.24127
 40
3
 41
1
 50
0
  1
１．５
  0
TEXT
  8
_0-2_0-2
 62
    7
 10
276.08777
 20
201.24126
 40
3
 41
1
 50
0
  1
１８（９）
  0
TEXT
  8
_0-2_0-2
 62
    7
 10
276.08777
 20
196.24127
 40
3
 41
1
 50
0
  1
１０．７／１３．１
  0
TEXT
  8
_0-2_0-2
 62
    7
 10
276.08777
 20
191.24125
 40
3
 41
1
 50
0
  1
０．３８／０．４３
  0
TEXT
  8
_0-2_0-2
 62
    7
 10
265.72348
 20
185.91738
 40
3
 41
1
 50
0
  1
UP0.63/0.85m/min DOWN1.26/1.70m/min
  0
TEXT
  8
_0-2_0-2
 62
    7
 10
254.85887
 20
-3.692636
 40
4
 41
1
 50
0
  1
ＶＣＡ－１５
  0
TEXT
  8
_0-2_0-2
 62
    7
 10
-53.273538
 20
238.84884
 40
4
 41
1
 50
0
  1
VCA-15
  0
TEXT
  8
_0-3_1-0
 62
    7
 10
-9.332631
 20
193.77738
 40
3
 41
1
 50
44.999923
  1
R2,980
  0
TEXT
  8
_0-3_1-0
 62
    7
 10
-9.248885
 20
227.41559
 40
3
 41
1
 50
0
  1
2,930
  0
TEXT
  8
_0-3_1-0
 62
    7
 10
10.026114
 20
227.41559
 40
3
 41
1
 50
0
  1
575
  0
TEXT
  8
_0-3_1-0
 62
    7
 10
-27.861862
 20
212.69188
 40
3
 41
1
 50
90
  1
525
  0
TEXT
  8
_0-3_1-0
 62
    7
 10
-27.861862
 20
203.09191
 40
3
 41
1
 50
90
  1
1,045
  0
TEXT
  8
_0-3_1-0
 62
    7
 10
-31.96219
 20
31.411982
 40
3
 41
1
 50
90
  1
269
  0
TEXT
  8
_0-3_1-0
 62
    7
 10
-31.96219
 20
75.105301
 40
3
 41
1
 50
90
  1
8,820
  0
TEXT
  8
_0-3_1-0
 62
    7
 10
-31.96219
 20
124.47628
 40
3
 41
1
 50
90
  1
705
  0
TEXT
  8
_0-3_1-0
 62
    7
 10
-31.96219
 20
146.24828
 40
3
 41
1
 50
90
  1
4,000
  0
TEXT
  8
_0-3_1-0
 62
    7
 10
79.526806
 20
125.49931
 40
3
 41
1
 50
0
  1
15,000
  0
TEXT
  8
_0-3_1-0
 62
    7
 10
88.797676
 20
102.66028
 40
4
 41
1
 50
0
  1
８．５
  0
TEXT
  8
_0-3_1-0
 62
    7
 10
113.79768
 20
102.66028
 40
4
 41
1
 50
0
  1
１１
  0
TEXT
  8
_0-3_1-0
 62
    7
 10
133.79767
 20
102.66028
 40
4
 41
1
 50
0
  1
１３
  0
TEXT
  8
_0-3_1-0
 62
    7
 10
153.79769
 20
102.66028
 40
4
 41
1
 50
0
  1
１５ｍ
  0
TEXT
  8
_0-3_1-0
 62
    7
 10
160.71618
 20
77.604441
 40
4
 41
1
 50
0
  1
１．００
  0
TEXT
  8
_0-3_1-0
 62
    7
 10
160.71618
 20
71.450591
 40
4
 41
1
 50
0
  1
（１．３３）
  0
TEXT
  8
_0-3_1-0
 62
    7
 10
160.71618
 20
65.296761
 40
4
 41
1
 50
0
  1
（１．５９）
  0
TEXT
  8
_0-3_1-0
 62
    7
 10
160.71618
 20
57.604452
 40
4
 41
1
 50
0
  1
（２．００ｔ）
  0
TEXT
  8
_0-7_2-1
 62
    7
 10
4.767764
 20
9.142596
 40
3
 41
1
 50
44.999969
  1
2,350
  0
TEXT
  8
_0-7_2-1
 62
    7
 10
27.045093
 20
20.658427
 40
3
 41
1
 50
-45
  1
295
  0
TEXT
  8
_0-7_2-1
 62
    7
 10
9.72897
 20
-21.764555
 40
3
 41
1
 50
45
  1
2,500
  0
TEXT
  8
_0-7_2-1
 62
    7
 10
29.669638
 20
-26.257293
 40
3
 41
1
 50
45.00003
  1
250
  0
TEXT
  8
_0-1_0-0
 62
    7
 10
254.9763
 20
-21.62597
 40
4
 41
1
 50
0
  1
1/100 1/50
  0
TEXT
  8
_0-3_1-0
 62
    7
 10
31.137698
 20
82.837151
 40
4
 41
1
 50
0
  1
巻上ワイヤー１本掛
  0
TEXT
  8
_0-3_1-0
 62
    7
 10
29.516076
 20
61.756071
 40
4
 41
1
 50
0
  1
（巻上ワイヤー２本掛）
  0
POINT
  8
_0-3_1-0
 62
    4
 10
-19.64888
 20
226.91559
  0
POINT
  8
_0-3_1-0
 62
    4
 10
9.651113
 20
226.91559
  0
POINT
  8
_0-3_1-0
 62
    4
 10
15.401113
 20
226.91559
  0
POINT
  8
_0-3_1-0
 62
    4
 10
-27.361864
 20
217.81691
  0
POINT
  8
_0-3_1-0
 62
    4
 10
-27.361864
 20
212.56688
  0
POINT
  8
_0-3_1-0
 62
    4
 10
-27.361864
 20
202.11692
  0
POINT
  8
_0-3_1-0
 62
    4
 10
-31.462189
 20
32.566932
  0
POINT
  8
_0-3_1-0
 62
    4
 10
-31.462189
 20
35.257049
  0
POINT
  8
_0-3_1-0
 62
    4
 10
-31.462189
 20
123.45355
  0
POINT
  8
_0-3_1-0
 62
    4
 10
-31.462189
 20
123.4536
  0
POINT
  8
_0-3_1-0
 62
    4
 10
-31.462189
 20
130.49896
  0
POINT
  8
_0-3_1-0
 62
    4
 10
-31.462189
 20
170.4976
  0
POINT
  8
_0-3_1-0
 62
    4
 10
9.651806
 20
124.99931
  0
POINT
  8
_0-3_1-0
 62
    4
 10
159.65179
 20
124.99931
  0
POINT
  8
_0-7_2-1
 62
    4
 10
18.459723
 20
21.722041
  0
POINT
  8
_0-7_2-1
 62
    4
 10
-14.774241
 20
-11.511923
  0
POINT
  8
_0-7_2-1
 62
    4
 10
26.373343
 20
20.623068
  0
POINT
  8
_0-7_2-1
 62
    4
 10
30.545278
 20
16.45114
  0
POINT
  8
_0-7_2-1
 62
    4
 10
-1.94539
 20
-26.46215
  0
POINT
  8
_0-7_2-1
 62
    4
 10
33.409938
 20
8.893177
  0
POINT
  8
_0-7_2-1
 62
    4
 10
27.194744
 20
-23.782439
  0
POINT
  8
_0-7_2-1
 62
    4
 10
30.730313
 20
-20.246867
  0
TEXT
  8
_0-2_0-2
 62
    7
 10
151.6402
 20
-31.358773
 40
4
 41
1
 50
0
  1
ファイル名　Ｖｃａ－１５．ｄｘｆ
  0
LINE
  8
_0-0_0
  6
CONTINUOUS
 62
    7
 10
81.382399
 20
19.343551
 11
78.868657
 21
19.029334
  0
LINE
  8
_0-0_0
  6
CONTINUOUS
 62
    7
 10
80.439746
 20
19.657769
 11
81.382399
 21
19.343551
  0
LINE
  8
_0-0_0
  6
CONTINUOUS
 62
    7
 10
80.439746
 20
19.657769
 11
79.81131
 21
19.657769
  0
LINE
  8
_0-0_0
  6
CONTINUOUS
 62
    7
 10
80.753964
 20
19.657769
 11
80.439746
 21
19.657769
  0
TEXT
  8
_0-3_1-0
 62
    7
 10
38.334566
 20
16.515591
 40
4
 41
1
 50
0
  1
アンカーボルトＭ３６
  0
ENDSEC
  0
EOF
