  0
SECTION
  2
HEADER
  9
$ACADVER
  1
AC1009
  9
$INSBASE
 10
0
 20
0
 30
0
  9
$EXTMIN
 10
0
 20
0
  9
$EXTMAX
 10
25200
 20
17820
  9
$LIMMIN
 10
0
 20
0
  9
$LIMMAX
 10
25200
 20
17820
  9
$LTSCALE
 40
60
  0
ENDSEC
  0
SECTION
  2
TABLES
  0
TABLE
  2
LTYPE
 70
     9
  0
LTYPE
  2
CONTINUOUS
 70
    64
  3
実線
 72
    65
 73
     0
 40
0.0
  0
LTYPE
  2
DASHED1
 70
    64
  3
--  --  --  --  --  --  --  --  
 72
    65
 73
     2
 40
2.5
 49
1.25
 49
-1.25
  0
LTYPE
  2
DASHED2
 70
    64
  3
----    ----    ----    ----    
 72
    65
 73
     2
 40
5.0
 49
2.5
 49
-2.5
  0
LTYPE
  2
DASHED3
 70
    64
  3
------  ------  ------  ------  
 72
    65
 73
     2
 40
5.0
 49
3.75
 49
-1.25
  0
LTYPE
  2
CENTER1
 70
    64
  3
----- - ----- - ----- - ----- - 
 72
    65
 73
     4
 40
10.0
 49
6.25
 49
-1.25
 49
1.25
 49
-1.25
  0
LTYPE
  2
CENTER2
 70
    64
  3
----------  --  ----------  --  
 72
    65
 73
     4
 40
20.0
 49
12.5
 49
-2.5
 49
2.5
 49
-2.5
  0
LTYPE
  2
PHANTOM1
 70
    64
  3
--- - - --- - - --- - - --- - - 
 72
    65
 73
     6
 40
10.0
 49
3.25
 49
-1.25
 49
1.25
 49
-1.25
 49
1.25
 49
-1.25
  0
LTYPE
  2
PHANTOM2
 70
    64
  3
--------  -  -  --------  -  -  
 72
    65
 73
     6
 40
20.0
 49
10.0
 49
-2.5
 49
1.25
 49
-2.5
 49
1.25
 49
-2.5
  0
LTYPE
  2
DOT
 70
    64
  3
-   -   -   -   -   -   -   -   
 72
    65
 73
     2
 40
2.5
 49
0.625
 49
-1.875
  0
LTYPE
  2
DUMMY
 70
    64
  3
ダミー
 72
    65
 73
     0
 40
0.0
  0
LTYPE
  2
RAND1
 70
    64
  3
ランダム線1
 72
    65
 73
     4
 40
10.0
 49
1.0
 49
-2.0
 49
3.0
 49
-4.0
  0
LTYPE
  2
RAND2
 70
    64
  3
ランダム線2
 72
    65
 73
     4
 40
14.0
 49
2.0
 49
-3.0
 49
4.0
 49
-5.0
  0
LTYPE
  2
RAND3
 70
    64
  3
ランダム線3
 72
    65
 73
     4
 40
18.0
 49
3.0
 49
-4.0
 49
5.0
 49
-6.0
  0
LTYPE
  2
RAND4
 70
    64
  3
ランダム線4
 72
    65
 73
     4
 40
22.0
 49
4.0
 49
-5.0
 49
6.0
 49
-7.0
  0
LTYPE
  2
RAND5
 70
    64
  3
ランダム線5
 72
    65
 73
     4
 40
26.0
 49
5.0
 49
-6.0
 49
7.0
 49
-8.0
  0
LTYPE
  2
LONG1
 70
    64
  3
----------  --  ----------  --  
 72
    65
 73
     4
 40
40.0
 49
32.5
 49
-2.5
 49
2.5
 49
-2.5
  0
LTYPE
  2
LONG2
 70
    64
  3
--------  -  -  --------  -  -  
 72
    65
 73
     6
 40
40.0
 49
30.0
 49
-2.5
 49
1.25
 49
-2.5
 49
1.25
 49
-2.5
  0
LTYPE
  2
LONG3
 70
    64
  3
+++++++++++++++..+++++++++++++++
 72
    65
 73
     2
 40
40.0
 49
37.5
 49
-2.5
  0
LTYPE
  2
LONG4
 70
    64
  3
+++++++++++++++..+++++++++++++++
 72
    65
 73
     2
 40
80.0
 49
75.0
 49
-5.0
  0
LTYPE
  2
LONG5
 70
    64
  3
----------  --  ----------  --  
 72
    65
 73
     4
 40
60.0
 49
37.5
 49
-7.5
 49
7.5
 49
-7.5
  0
LTYPE
  2
dashed
 70
   64
  3
-------   -------------   ------
 72
   65
 73
    2
 40
7.5
 49
6
 49
-1.5
  0
LTYPE
  2
dashed_spaced
 70
   64
  3
----        --------        ----
 72
   65
 73
    2
 40
12
 49
6
 49
-6
  0
LTYPE
  2
long_dashed_dotted
 70
   64
  3
------------- --- --------------
 72
   65
 73
    4
 40
15.25
 49
12
 49
-1.5
 49
0.25
 49
-1.5
  0
LTYPE
  2
long_dashed_double-dotted
 70
   64
  3
----------- --- --- ------------
 72
   65
 73
    6
 40
17
 49
12
 49
-1.5
 49
0.25
 49
-1.5
 49
0.25
 49
-1.5
  0
LTYPE
  2
long_dashed_triplicate-dotted
 70
   64
  3
--------- --- --- --- ----------
 72
   65
 73
    8
 40
18.75
 49
12
 49
-1.5
 49
0.25
 49
-1.5
 49
0.25
 49
-1.5
 49
0.25
 49
-1.5
  0
LTYPE
  2
dotted
 70
   64
  3
   -       -       -       -    
 72
   65
 73
    2
 40
1.75
 49
0.25
 49
-1.5
  0
LTYPE
  2
chain
 70
   64
  3
-------------- -- --------------
 72
   65
 73
    4
 40
18.5
 49
12
 49
-1.5
 49
3.5
 49
-1.5
  0
LTYPE
  2
chain_double_dash
 70
   64
  3
------------ -- -- -------------
 72
   65
 73
    6
 40
23.5
 49
12
 49
-1.5
 49
3.5
 49
-1.5
 49
3.5
 49
-1.5
  0
LTYPE
  2
dashed_dotted
 70
   64
  3
-----------     -     ----------
 72
   65
 73
    4
 40
9.25
 49
6
 49
-1.5
 49
0.25
 49
-1.5
  0
LTYPE
  2
double-dashed_dotted
 70
   64
  3
------   -----------   -   -----
 72
   65
 73
    6
 40
16.75
 49
6
 49
-1.5
 49
6
 49
-1.5
 49
0.25
 49
-1.5
  0
LTYPE
  2
dashed_double-dotted
 70
   64
  3
---------    -    -    ---------
 72
   65
 73
    6
 40
11
 49
6
 49
-1.5
 49
0.25
 49
-1.5
 49
0.25
 49
-1.5
  0
LTYPE
  2
double-dashed_double-dotted
 70
   64
  3
-----   ---------   -   -   ----
 72
   65
 73
    8
 40
18.5
 49
6
 49
-1.5
 49
6
 49
-1.5
 49
0.25
 49
-1.5
 49
0.25
 49
-1.5
  0
LTYPE
  2
dashed_triplicate-dotted
 70
   64
  3
-------    -    -    -    ------
 72
   65
 73
    8
 40
12.75
 49
6
 49
-1.5
 49
0.25
 49
-1.5
 49
0.25
 49
-1.5
 49
0.25
 49
-1.5
  0
LTYPE
  2
double-dashed_triplicate-dotted
 70
   64
  3
-----  ---------  -  -  -  -----
 72
   65
 73
   10
 40
20.25
 49
6
 49
-1.5
 49
6
 49
-1.5
 49
0.25
 49
-1.5
 49
0.25
 49
-1.5
 49
0.25
 49
-1.5
  0
LTYPE
  2
undefined
 70
   64
  3
--------------------------------
 72
   65
 73
    0
 40
0
  0
ENDTAB
  0
TABLE
  2
STYLE
  5
3
100
AcDbSymbolTable
 70
     1
  0
STYLE
  5
10
100
AcDbSymbolTableRecord
100
AcDbTextStyleTableRecord
  2
STANDARD
 70
     0
 40
0.0
 41
1.0
 50
0.0
 71
     0
 42
0.2
  3
txt
  4
bigfont.shx
  0
STYLE
  5
26
100
AcDbSymbolTableRecord
100
AcDbTextStyleTableRecord
  2
TATEGAKI
 70
    68
 40
0.0
 41
1.0
 50
0.0
 71
     0
 42
1.0
  3
txt
  4
bigfont.shx
  0
ENDTAB
  0
TABLE
  2
LAYER
 70
   12
  0
LAYER
  2
_0-0_
 70
   64
 62
    7
  6
CONTINUOUS
  0
LAYER
  2
_0-1_
 70
   64
 62
    7
  6
CONTINUOUS
  0
LAYER
  2
_0-2_
 70
   64
 62
    7
  6
CONTINUOUS
  0
LAYER
  2
_0-3_
 70
   64
 62
    7
  6
CONTINUOUS
  0
LAYER
  2
_0-4_
 70
   64
 62
    7
  6
CONTINUOUS
  0
LAYER
  2
_0-5_
 70
   64
 62
    7
  6
CONTINUOUS
  0
LAYER
  2
_0-6_
 70
   64
 62
    7
  6
CONTINUOUS
  0
LAYER
  2
_0-f_
 70
   64
 62
    7
  6
CONTINUOUS
  0
LAYER
  2
_f-0_
 70
   64
 62
    7
  6
CONTINUOUS
  0
LAYER
  2
_f-1_
 70
   64
 62
    7
  6
CONTINUOUS
  0
LAYER
  2
_f-2_
 70
   64
 62
    7
  6
CONTINUOUS
  0
LAYER
  2
ADD_LINE
 70
   64
 62
    7
  6
CONTINUOUS
  0
ENDTAB
  0
ENDSEC
  0
SECTION
  2
BLOCKS
  0
BLOCK
  2
-000-30-1_1_
 70
   64
 10
0
 20
0
 30
0
  0
LINE
  8
_0-5_
  6
CONTINUOUS
 62
    7
 10
-210
 20
16.875
 11
210
 21
16.875
  0
LINE
  8
_0-5_
  6
CONTINUOUS
 62
    7
 10
-210
 20
-16.875
 11
210
 21
-16.875
  0
LINE
  8
_0-5_
  6
CONTINUOUS
 62
    7
 10
-210
 20
16.875
 11
-210
 21
-16.875
  0
LINE
  8
_0-5_
  6
CONTINUOUS
 62
    7
 10
210
 20
16.875
 11
210
 21
-16.875
  0
ENDBLK
  0
BLOCK
  2
-001-30-1
 70
   64
 10
0
 20
0
 30
0
  0
LINE
  8
_0-5_
  6
CONTINUOUS
 62
    7
 10
-187.12200000000024
 20
-28.125000000000107
 11
187.12200000000024
 21
-28.125000000000107
  0
LINE
  8
_0-5_
  6
CONTINUOUS
 62
    7
 10
187.12200000000024
 20
-28.125000000000107
 11
187.12200000000024
 21
28.124999999999893
  0
LINE
  8
_0-5_
  6
CONTINUOUS
 62
    7
 10
187.12200000000024
 20
28.124999999999893
 11
-187.12200000000024
 21
28.124999999999893
  0
LINE
  8
_0-5_
  6
CONTINUOUS
 62
    7
 10
-187.12200000000024
 20
28.124999999999893
 11
-187.12200000000024
 21
-28.125000000000107
  0
LINE
  8
_0-5_
  6
CONTINUOUS
 62
    7
 10
1.8360000000004106
 20
28.124999999999893
 11
16.913999999999589
 21
-28.125000000000107
  0
LINE
  8
_0-5_
  6
CONTINUOUS
 62
    7
 10
-16.913999999999589
 20
28.124999999999893
 11
-1.8360000000004106
 21
-28.125000000000107
  0
ENDBLK
  0
BLOCK
  2
-002-M30-2_1_
 70
   64
 10
0
 20
0
 30
0
  0
LINE
  8
_0-5_
  6
CONTINUOUS
 62
    7
 10
194.85600000000034
 20
90.372545454545303
 11
194.85600000000034
 21
-72.389454545454583
  0
LINE
  8
_0-5_
  6
CONTINUOUS
 62
    7
 10
-194.85600000000034
 20
90.372545454545303
 11
-194.85600000000034
 21
-72.389454545454583
  0
LINE
  8
_0-5_
  6
CONTINUOUS
 62
    7
 10
-165
 20
107.61054545454542
 11
165
 21
107.61054545454542
  0
LINE
  8
_0-5_
  6
CONTINUOUS
 62
    7
 10
-194.85600000000034
 20
-72.389454545454583
 11
194.85600000000034
 21
-72.389454545454583
  0
LINE
  8
_0-5_
  6
CONTINUOUS
 62
    7
 10
165
 20
107.61054545454542
 11
194.85600000000034
 21
90.372545454545303
  0
LINE
  8
_0-5_
  6
CONTINUOUS
 62
    7
 10
-165
 20
107.61054545454542
 11
-194.85600000000034
 21
90.372545454545303
  0
LINE
  8
_0-5_
  6
CONTINUOUS
 62
    7
 10
-99.593999999999596
 20
90.372545454545303
 11
-99.593999999999596
 21
-72.389454545454583
  0
LINE
  8
_0-5_
  6
CONTINUOUS
 62
    7
 10
99.593999999999596
 20
90.372545454545303
 11
99.593999999999596
 21
-72.389454545454583
  0
ARC
  8
_0-5_
  6
CONTINUOUS
 62
    7
 10
-147.22199999999987
 20
9.120545454545379
 40
94.182000000000002
 50
59.621000000000016
 51
120.37900000000003
  0
ARC
  8
_0-5_
  6
CONTINUOUS
 62
    7
 10
0
 20
-287.4114545454546
 40
390.69
 50
75.231000000000009
 51
104.76900000000003
  0
ARC
  8
_0-5_
  6
CONTINUOUS
 62
    7
 10
147.22199999999987
 20
9.120545454545379
 40
94.182000000000002
 50
59.621000000000016
 51
120.37900000000003
  0
ENDBLK
  0
BLOCK
  2
-003-_____
 70
   64
 10
0
 20
0
 30
0
  0
LINE
  8
_0-0_
  6
CONTINUOUS
 62
    7
 10
302.11137226212861
 20
165.45990389351033
 11
709.40487822558032
 21
165.45990389351033
  0
LINE
  8
_0-0_
  6
CONTINUOUS
 62
    7
 10
302.11137226212861
 20
165.45990389351033
 11
302.11137226212861
 21
-434.54009610648967
  0
LINE
  8
_0-0_
  6
CONTINUOUS
 62
    7
 10
327.56721638484436
 20
165.45990389351033
 11
327.56721638484436
 21
-434.54009610648967
  0
LINE
  8
_0-0_
  6
CONTINUOUS
 62
    7
 10
709.40487822558032
 20
165.45990389351033
 11
709.40487822558032
 21
-434.54009610648967
  0
LINE
  8
_0-0_
  6
CONTINUOUS
 62
    7
 10
196.04535507688186
 20
165.45990389351033
 11
196.04535507688186
 21
154.2663038935099
  0
LINE
  8
_0-0_
  6
CONTINUOUS
 62
    7
 10
577.8830169248821
 20
-434.54009610648967
 11
790.01505128488236
 21
-434.54009610648967
  0
LINE
  8
_0-0_
  6
CONTINUOUS
 62
    7
 10
790.01505128488236
 20
-434.54009610648967
 11
790.01505128488236
 21
-423.34169610648985
  0
LINE
  8
_0-0_
  6
CONTINUOUS
 62
    7
 10
577.8830169248821
 20
165.45990389351033
 11
790.01505128488236
 21
165.45990389351033
  0
LINE
  8
_0-0_
  6
CONTINUOUS
 62
    7
 10
790.01505128488236
 20
165.45990389351033
 11
790.01505128488236
 21
154.2663038935099
  0
LINE
  8
_0-0_
  6
CONTINUOUS
 62
    7
 10
790.01505128488213
 20
-423.34169610648985
 11
790.01505128488213
 21
-423.34169610648985
  0
LINE
  8
_0-0_
  6
CONTINUOUS
 62
    7
 10
790.01505128488213
 20
-423.34169610648985
 11
789.75723030408051
 21
-419.1741398424835
  0
LINE
  8
_0-0_
  6
CONTINUOUS
 62
    7
 10
789.75723030408051
 20
-419.1741398424835
 11
788.99160112171364
 21
-415.13321266667378
  0
LINE
  8
_0-0_
  6
CONTINUOUS
 62
    7
 10
788.99160112171364
 20
-415.13321266667378
 11
787.74142699306083
 21
-411.34169610648985
  0
LINE
  8
_0-0_
  6
CONTINUOUS
 62
    7
 10
787.74142699306083
 20
-411.34169610648985
 11
786.04469382640229
 21
-407.91479347401292
  0
LINE
  8
_0-0_
  6
CONTINUOUS
 62
    7
 10
786.04469382640229
 20
-407.91479347401292
 11
783.95295600041868
 21
-404.95662947163436
  0
LINE
  8
_0-0_
  6
CONTINUOUS
 62
    7
 10
783.95295600041868
 20
-404.95662947163436
 11
781.52976991048206
 21
-402.55708641566332
  0
LINE
  8
_0-0_
  6
CONTINUOUS
 62
    7
 10
781.52976991048206
 20
-402.55708641566332
 11
778.84876283974393
 21
-400.78907320762806
  0
LINE
  8
_0-0_
  6
CONTINUOUS
 62
    7
 10
778.84876283974393
 20
-400.78907320762806
 11
775.99139583139356
 21
-399.70631003419686
  0
LINE
  8
_0-0_
  6
CONTINUOUS
 62
    7
 10
775.99139583139356
 20
-399.70631003419686
 11
774.52357053729952
 21
-399.43302335228793
  0
LINE
  8
_0-0_
  6
CONTINUOUS
 62
    7
 10
774.52357053729952
 20
130.35763113930801
 11
774.52357053729952
 21
130.35763113930801
  0
LINE
  8
_0-0_
  6
CONTINUOUS
 62
    7
 10
774.52357053729952
 20
130.35763113930801
 11
777.43679338157892
 21
131.08408406257226
  0
LINE
  8
_0-0_
  6
CONTINUOUS
 62
    7
 10
777.43679338157892
 20
131.08408406257226
 11
780.21655826574147
 21
132.51491700463032
  0
LINE
  8
_0-0_
  6
CONTINUOUS
 62
    7
 10
780.21655826574147
 20
132.51491700463032
 11
782.77840344041067
 21
134.60665483057412
  0
LINE
  8
_0-0_
  6
CONTINUOUS
 62
    7
 10
782.77840344041067
 20
134.60665483057412
 11
785.04448853631038
 21
137.29574114503276
  0
LINE
  8
_0-0_
  6
CONTINUOUS
 62
    7
 10
785.04448853631038
 20
137.29574114503276
 11
786.9459597044962
 21
140.5004694210848
  0
LINE
  8
_0-0_
  6
CONTINUOUS
 62
    7
 10
786.9459597044962
 20
140.5004694210848
 11
788.42504170571362
 21
144.12346561173311
  0
LINE
  8
_0-0_
  6
CONTINUOUS
 62
    7
 10
788.42504170571362
 20
144.12346561173311
 11
789.43679338180721
 21
148.05464681104942
  0
LINE
  8
_0-0_
  6
CONTINUOUS
 62
    7
 10
789.43679338180721
 20
148.05464681104942
 11
789.95047317006993
 21
152.17456606756613
  0
LINE
  8
_0-0_
  6
CONTINUOUS
 62
    7
 10
789.95047317006993
 20
152.17456606756613
 11
790.01505128488213
 21
154.26630389350993
  0
LINE
  8
_0-0_
  6
CONTINUOUS
 62
    7
 10
709.40487822558032
 20
-391.37656135360771
 11
774.52432160777767
 21
-399.43289610649032
  0
LINE
  8
_0-0_
  6
CONTINUOUS
 62
    7
 10
709.40487822558032
 20
122.29900520435237
 11
774.52432160777767
 21
130.35750389350994
  0
LINE
  8
_0-0_
  6
CONTINUOUS
 62
    7
 10
790.01505128488236
 20
165.45990389351033
 11
709.40487822558032
 21
165.45990389351033
  0
LINE
  8
_0-0_
  6
CONTINUOUS
 62
    7
 10
302.11137226212861
 20
-434.54009610648967
 11
709.40487822558032
 21
-434.54009610648967
  0
LINE
  8
_0-0_
  6
CONTINUOUS
 62
    7
 10
196.04535508011054
 20
-434.54009610648967
 11
196.04535508011054
 21
-423.34169610648985
  0
LINE
  8
_0-0_
  6
CONTINUOUS
 62
    7
 10
408.1773894401108
 20
165.45990389351033
 11
196.04535508011054
 21
165.45990389351033
  0
LINE
  8
_0-0_
  6
CONTINUOUS
 62
    7
 10
196.04535508011054
 20
165.45990389351033
 11
196.04535508011054
 21
154.2663038935099
  0
LINE
  8
_0-0_
  6
CONTINUOUS
 62
    7
 10
211.5368358276933
 20
-399.43302335228793
 11
211.5368358276933
 21
-399.43302335228793
  0
LINE
  8
_0-0_
  6
CONTINUOUS
 62
    7
 10
211.5368358276933
 20
-399.43302335228793
 11
208.62361298341386
 21
-400.15947627555221
  0
LINE
  8
_0-0_
  6
CONTINUOUS
 62
    7
 10
208.62361298341386
 20
-400.15947627555221
 11
205.84384809925137
 21
-401.59030921761024
  0
LINE
  8
_0-0_
  6
CONTINUOUS
 62
    7
 10
205.84384809925137
 20
-401.59030921761024
 11
203.28200292458217
 21
-403.68204704355406
  0
LINE
  8
_0-0_
  6
CONTINUOUS
 62
    7
 10
203.28200292458217
 20
-403.68204704355406
 11
201.0159178286824
 21
-406.37113335801268
  0
LINE
  8
_0-0_
  6
CONTINUOUS
 62
    7
 10
201.0159178286824
 20
-406.37113335801268
 11
199.11444666049655
 21
-409.57586163406472
  0
LINE
  8
_0-0_
  6
CONTINUOUS
 62
    7
 10
199.11444666049655
 20
-409.57586163406472
 11
197.63536465927916
 21
-413.19885782471306
  0
LINE
  8
_0-0_
  6
CONTINUOUS
 62
    7
 10
197.63536465927916
 20
-413.19885782471306
 11
196.62361298318558
 21
-417.13003902402932
  0
LINE
  8
_0-0_
  6
CONTINUOUS
 62
    7
 10
196.62361298318558
 20
-417.13003902402932
 11
196.10993319492286
 21
-421.24995828054602
  0
LINE
  8
_0-0_
  6
CONTINUOUS
 62
    7
 10
196.10993319492286
 20
-421.24995828054602
 11
196.04535508011068
 21
-423.34169610648985
  0
LINE
  8
_0-0_
  6
CONTINUOUS
 62
    7
 10
196.04535508011068
 20
154.26630389350993
 11
196.04535508011068
 21
154.26630389350993
  0
LINE
  8
_0-0_
  6
CONTINUOUS
 62
    7
 10
196.04535508011068
 20
154.26630389350993
 11
196.30317606091228
 21
150.09874762950361
  0
LINE
  8
_0-0_
  6
CONTINUOUS
 62
    7
 10
196.30317606091228
 20
150.09874762950361
 11
197.06880524327909
 21
146.05782045369386
  0
LINE
  8
_0-0_
  6
CONTINUOUS
 62
    7
 10
197.06880524327909
 20
146.05782045369386
 11
198.31897937193202
 21
142.26630389350993
  0
LINE
  8
_0-0_
  6
CONTINUOUS
 62
    7
 10
198.31897937193202
 20
142.26630389350993
 11
200.01571253859049
 21
138.83940126103298
  0
LINE
  8
_0-0_
  6
CONTINUOUS
 62
    7
 10
200.01571253859049
 20
138.83940126103298
 11
202.10745036457411
 21
135.88123725865444
  0
LINE
  8
_0-0_
  6
CONTINUOUS
 62
    7
 10
202.10745036457411
 20
135.88123725865444
 11
204.53063645451067
 21
133.4816942026834
  0
LINE
  8
_0-0_
  6
CONTINUOUS
 62
    7
 10
204.53063645451067
 20
133.4816942026834
 11
207.21164352524883
 21
131.71368099464812
  0
LINE
  8
_0-0_
  6
CONTINUOUS
 62
    7
 10
207.21164352524883
 20
131.71368099464812
 11
210.06901053359925
 21
130.63091782121691
  0
LINE
  8
_0-0_
  6
CONTINUOUS
 62
    7
 10
210.06901053359925
 20
130.63091782121691
 11
211.53683582769327
 21
130.35763113930801
  0
LINE
  8
_0-0_
  6
CONTINUOUS
 62
    7
 10
302.11137226212861
 20
-434.54009610648967
 11
196.04535508011054
 21
-434.54009610648967
  0
LINE
  8
_0-0_
  6
CONTINUOUS
 62
    7
 10
302.11137226212861
 20
-388.22725922480885
 11
211.53608475721538
 21
-399.43289610649032
  0
LINE
  8
_0-0_
  6
CONTINUOUS
 62
    7
 10
302.11137226212861
 20
119.14885717113989
 11
211.53608475721538
 21
130.35750389350994
  0
LINE
  8
_0-0_
  6
CONTINUOUS
 62
    7
 10
-1293.1215260947226
 20
165.45990389351033
 11
-1293.1215260947226
 21
-434.54009610648967
  0
LINE
  8
_0-0_
  6
CONTINUOUS
 62
    7
 10
-1267.665681972007
 20
165.45990389351033
 11
-1267.665681972007
 21
-434.54009610648967
  0
LINE
  8
_0-0_
  6
CONTINUOUS
 62
    7
 10
408.17738943688215
 20
-434.54009610648967
 11
-1293.1215260947226
 21
-434.54009610648967
  0
LINE
  8
_0-0_
  6
CONTINUOUS
 62
    7
 10
302.11137226212861
 20
-389.54009610648967
 11
-1267.665681972007
 21
-389.54009610648967
  0
LINE
  8
_0-0_
  6
CONTINUOUS
 62
    7
 10
645.76526791879121
 20
237.4599038935105
 11
645.76526791879121
 21
165.45990389351033
  0
LINE
  8
_0-0_
  6
CONTINUOUS
 62
    7
 10
-414.89490386103012
 20
237.4599038935105
 11
-1229.4819157879335
 21
237.4599038935105
  0
LINE
  8
_0-0_
  6
CONTINUOUS
 62
    7
 10
-414.89490386103012
 20
237.4599038935105
 11
-414.89490386103012
 21
165.45990389351033
  0
LINE
  8
_0-0_
  6
CONTINUOUS
 62
    7
 10
645.76526791879121
 20
237.4599038935105
 11
-168.82174400811232
 21
237.4599038935105
  0
LINE
  8
_0-0_
  6
CONTINUOUS
 62
    7
 10
238.47176195533945
 20
237.4599038935105
 11
238.47176195533945
 21
165.45990389351033
  0
LINE
  8
_0-0_
  6
CONTINUOUS
 62
    7
 10
577.88301692488221
 20
237.4599038935105
 11
577.88301692488221
 21
165.45990389351033
  0
LINE
  8
_0-0_
  6
CONTINUOUS
 62
    7
 10
-822.18840982448182
 20
237.4599038935105
 11
-822.18840982448182
 21
165.45990389351033
  0
LINE
  8
_0-0_
  6
CONTINUOUS
 62
    7
 10
-482.777154854939
 20
237.4599038935105
 11
-482.777154854939
 21
165.45990389351033
  0
LINE
  8
_0-0_
  6
CONTINUOUS
 62
    7
 10
-1229.4819157879335
 20
237.4599038935105
 11
-1229.4819157879335
 21
81.459903893510415
  0
LINE
  8
_0-0_
  6
CONTINUOUS
 62
    7
 10
-1059.7762883031621
 20
81.459903893510415
 11
-1229.4819157879335
 21
81.459903893510415
  0
LINE
  8
_0-0_
  6
CONTINUOUS
 62
    7
 10
-1059.7762883031621
 20
237.4599038935105
 11
-1059.7762883031621
 21
81.459903893510415
  0
LINE
  8
_0-0_
  6
CONTINUOUS
 62
    7
 10
-168.82174400811232
 20
237.4599038935105
 11
-168.82174400811232
 21
81.459903893510415
  0
LINE
  8
_0-0_
  6
CONTINUOUS
 62
    7
 10
0.8838834766591929
 20
81.459903893510415
 11
-168.82174400811232
 21
81.459903893510415
  0
LINE
  8
_0-0_
  6
CONTINUOUS
 62
    7
 10
0.8838834766591929
 20
237.4599038935105
 11
0.8838834766591929
 21
81.459903893510415
  0
LINE
  8
_0-0_
  6
CONTINUOUS
 62
    7
 10
-1229.4819157879335
 20
120.45990389351033
 11
-1267.665681972007
 21
120.45990389351033
  0
LINE
  8
_0-0_
  6
CONTINUOUS
 62
    7
 10
-1229.4819157879335
 20
165.45990389351033
 11
-1293.1215260947226
 21
165.45990389351033
  0
LINE
  8
_0-0_
  6
CONTINUOUS
 62
    7
 10
302.11137226212861
 20
120.45990389351033
 11
0.8838834766591929
 21
120.45990389351033
  0
LINE
  8
_0-0_
  6
CONTINUOUS
 62
    7
 10
-168.82174400811232
 20
120.45990389351033
 11
-1059.7762883031621
 21
120.45990389351033
  0
LINE
  8
_0-0_
  6
CONTINUOUS
 62
    7
 10
408.17738943688215
 20
165.45990389351033
 11
0.8838834766591929
 21
165.45990389351033
  0
LINE
  8
_0-0_
  6
CONTINUOUS
 62
    7
 10
-168.82174400811232
 20
165.45990389351033
 11
-1059.7762883031621
 21
165.45990389351033
  0
ENDBLK
  0
BLOCK
  2
-004-M30-2
 70
   64
 10
0
 20
0
 30
0
  0
LINE
  8
_0-5_
  6
CONTINUOUS
 62
    7
 10
180
 20
-655.20054545454536
 11
-180
 21
-655.20054545454536
  0
LINE
  8
_0-5_
  6
CONTINUOUS
 62
    7
 10
-180
 20
-655.20054545454536
 11
-137.99999999999983
 21
-697.20054545454514
  0
LINE
  8
_0-5_
  6
CONTINUOUS
 62
    7
 10
180
 20
-655.20054545454536
 11
137.99999999999983
 21
-697.20054545454514
  0
LINE
  8
_0-5_
  6
CONTINUOUS
 62
    7
 10
137.99999999999983
 20
-697.20054545454514
 11
-137.99999999999983
 21
-697.20054545454514
  0
LINE
  8
_0-5_
  6
DASHED1
 62
    7
 10
180
 20
1102.7994545454553
 11
-180
 21
1102.7994545454553
  0
LINE
  8
_0-5_
  6
DASHED1
 62
    7
 10
-157.27200000000011
 20
1102.7994545454553
 11
-180
 21
1142.1654545454553
  0
LINE
  8
_0-5_
  6
DASHED1
 62
    7
 10
157.27200000000011
 20
1102.7994545454553
 11
180
 21
1142.1654545454553
  0
LINE
  8
_0-5_
  6
CONTINUOUS
 62
    7
 10
-180
 20
-409.20054545454616
 11
-180
 21
-655.20054545454536
  0
LINE
  8
_0-5_
  6
CONTINUOUS
 62
    7
 10
-157.27200000000011
 20
-409.20054545454616
 11
-157.27200000000011
 21
-677.92854545454531
  0
LINE
  8
_0-5_
  6
CONTINUOUS
 62
    7
 10
157.27200000000011
 20
-409.20054545454605
 11
157.27200000000011
 21
-677.92854545454531
  0
LINE
  8
_0-5_
  6
CONTINUOUS
 62
    7
 10
180
 20
-409.2005454545461
 11
180
 21
-655.20054545454536
  0
ENDBLK
  0
BLOCK
  2
-005-ベ__ス立面1
 70
   64
 10
0
 20
0
 30
0
  0
LINE
  8
_0-1_
  6
CONTINUOUS
 62
    7
 10
-2906.208870676709
 20
882.00000000000273
 11
-2906.208870676709
 21
810.00000000000341
  0
LINE
  8
_0-1_
  6
CONTINUOUS
 62
    7
 10
-2057.6807332367098
 20
882.00000000000273
 11
-2057.6807332367098
 21
810.00000000000341
  0
LINE
  8
_0-1_
  6
CONTINUOUS
 62
    7
 10
-2498.9153647055091
 20
732.00000000000273
 11
-2498.9153647055091
 21
732.00000000000273
  0
LINE
  8
_0-1_
  6
CONTINUOUS
 62
    7
 10
-2498.9153647055091
 20
732.00000000000273
 11
-2499.7532828931144
 21
745.54455785802327
  0
LINE
  8
_0-1_
  6
CONTINUOUS
 62
    7
 10
-2499.7532828931144
 20
745.54455785802327
 11
-2502.2415777358065
 21
758.67757117940494
  0
LINE
  8
_0-1_
  6
CONTINUOUS
 62
    7
 10
-2502.2415777358065
 20
758.67757117940494
 11
-2506.3046436539285
 21
771.00000000000273
  0
LINE
  8
_0-1_
  6
CONTINUOUS
 62
    7
 10
-2506.3046436539285
 20
771.00000000000273
 11
-2511.8190264455684
 21
782.13743355555278
  0
LINE
  8
_0-1_
  6
CONTINUOUS
 62
    7
 10
-2511.8190264455684
 20
782.13743355555278
 11
-2518.6171743800151
 21
791.75146656328297
  0
LINE
  8
_0-1_
  6
CONTINUOUS
 62
    7
 10
-2518.6171743800151
 20
791.75146656328297
 11
-2526.4925291723093
 21
799.54998149518894
  0
LINE
  8
_0-1_
  6
CONTINUOUS
 62
    7
 10
-2526.4925291723093
 20
799.54998149518894
 11
-2535.205802152208
 21
805.29602442130363
  0
LINE
  8
_0-1_
  6
CONTINUOUS
 62
    7
 10
-2535.205802152208
 20
805.29602442130363
 11
-2544.4922449293472
 21
808.81500473495498
  0
LINE
  8
_0-1_
  6
CONTINUOUS
 62
    7
 10
-2544.4922449293472
 20
808.81500473495498
 11
-2554.0696936391091
 21
810.00000000000273
  0
LINE
  8
_0-1_
  6
CONTINUOUS
 62
    7
 10
-2409.8199102743097
 20
810.00000000000273
 11
-2409.8199102743097
 21
810.00000000000273
  0
LINE
  8
_0-1_
  6
CONTINUOUS
 62
    7
 10
-2409.8199102743097
 20
810.00000000000273
 11
-2419.3973589840716
 21
808.81500473495498
  0
LINE
  8
_0-1_
  6
CONTINUOUS
 62
    7
 10
-2419.3973589840716
 20
808.81500473495498
 11
-2428.6838017612108
 21
805.29602442130363
  0
LINE
  8
_0-1_
  6
CONTINUOUS
 62
    7
 10
-2428.6838017612108
 20
805.29602442130363
 11
-2437.3970747411095
 21
799.54998149518894
  0
LINE
  8
_0-1_
  6
CONTINUOUS
 62
    7
 10
-2437.3970747411095
 20
799.54998149518894
 11
-2445.2724295334037
 21
791.75146656328297
  0
LINE
  8
_0-1_
  6
CONTINUOUS
 62
    7
 10
-2445.2724295334037
 20
791.75146656328297
 11
-2452.0705774678504
 21
782.13743355555278
  0
LINE
  8
_0-1_
  6
CONTINUOUS
 62
    7
 10
-2452.0705774678504
 20
782.13743355555278
 11
-2457.5849602594903
 21
771.00000000000273
  0
LINE
  8
_0-1_
  6
CONTINUOUS
 62
    7
 10
-2457.5849602594903
 20
771.00000000000273
 11
-2461.6480261776123
 21
758.67757117940494
  0
LINE
  8
_0-1_
  6
CONTINUOUS
 62
    7
 10
-2461.6480261776123
 20
758.67757117940494
 11
-2464.1363210203044
 21
745.54455785802327
  0
LINE
  8
_0-1_
  6
CONTINUOUS
 62
    7
 10
-2464.1363210203044
 20
745.54455785802327
 11
-2464.9742392079097
 21
732.00000000000273
  0
LINE
  8
_0-1_
  6
CONTINUOUS
 62
    7
 10
-2498.9153647055095
 20
-731.99999999999682
 11
-2498.9153647055095
 21
732.00000000000273
  0
LINE
  8
_0-1_
  6
CONTINUOUS
 62
    7
 10
-2464.9742392079092
 20
-731.99999999999682
 11
-2464.9742392079092
 21
732.00000000000273
  0
LINE
  8
_0-1_
  6
CENTER2
 62
    4
 10
-2481.9448019567094
 20
882.00000000000273
 11
-2481.9448019567094
 21
-881.99999999999682
  0
LINE
  8
_0-1_
  6
CONTINUOUS
 62
    7
 10
-2906.208870676709
 20
-809.99999999999659
 11
-2906.208870676709
 21
-881.99999999999682
  0
LINE
  8
_0-1_
  6
CONTINUOUS
 62
    7
 10
-2057.6807332367098
 20
-809.99999999999659
 11
-2057.6807332367098
 21
-881.99999999999682
  0
LINE
  8
_0-1_
  6
CONTINUOUS
 62
    7
 10
-2464.9742392079097
 20
-731.99999999999682
 11
-2464.9742392079097
 21
-731.99999999999682
  0
LINE
  8
_0-1_
  6
CONTINUOUS
 62
    7
 10
-2464.9742392079097
 20
-731.99999999999682
 11
-2464.1363210203044
 21
-745.54455785801736
  0
LINE
  8
_0-1_
  6
CONTINUOUS
 62
    7
 10
-2464.1363210203044
 20
-745.54455785801736
 11
-2461.6480261776123
 21
-758.67757117939891
  0
LINE
  8
_0-1_
  6
CONTINUOUS
 62
    7
 10
-2461.6480261776123
 20
-758.67757117939891
 11
-2457.5849602594903
 21
-770.99999999999682
  0
LINE
  8
_0-1_
  6
CONTINUOUS
 62
    7
 10
-2457.5849602594903
 20
-770.99999999999682
 11
-2452.0705774678504
 21
-782.13743355554686
  0
LINE
  8
_0-1_
  6
CONTINUOUS
 62
    7
 10
-2452.0705774678504
 20
-782.13743355554686
 11
-2445.2724295334037
 21
-791.75146656327706
  0
LINE
  8
_0-1_
  6
CONTINUOUS
 62
    7
 10
-2445.2724295334037
 20
-791.75146656327706
 11
-2437.3970747411099
 21
-799.54998149518303
  0
LINE
  8
_0-1_
  6
CONTINUOUS
 62
    7
 10
-2437.3970747411099
 20
-799.54998149518303
 11
-2428.6838017612108
 21
-805.29602442129772
  0
LINE
  8
_0-1_
  6
CONTINUOUS
 62
    7
 10
-2428.6838017612108
 20
-805.29602442129772
 11
-2419.3973589840716
 21
-808.81500473494907
  0
LINE
  8
_0-1_
  6
CONTINUOUS
 62
    7
 10
-2419.3973589840716
 20
-808.81500473494907
 11
-2409.8199102743097
 21
-809.99999999999682
  0
LINE
  8
_0-1_
  6
CONTINUOUS
 62
    7
 10
-2554.0696936391091
 20
-809.99999999999682
 11
-2554.0696936391091
 21
-809.99999999999682
  0
LINE
  8
_0-1_
  6
CONTINUOUS
 62
    7
 10
-2554.0696936391091
 20
-809.99999999999682
 11
-2544.4922449293472
 21
-808.81500473494907
  0
LINE
  8
_0-1_
  6
CONTINUOUS
 62
    7
 10
-2544.4922449293472
 20
-808.81500473494907
 11
-2535.205802152208
 21
-805.29602442129772
  0
LINE
  8
_0-1_
  6
CONTINUOUS
 62
    7
 10
-2535.205802152208
 20
-805.29602442129772
 11
-2526.4925291723093
 21
-799.54998149518303
  0
LINE
  8
_0-1_
  6
CONTINUOUS
 62
    7
 10
-2526.4925291723093
 20
-799.54998149518303
 11
-2518.6171743800151
 21
-791.75146656327706
  0
LINE
  8
_0-1_
  6
CONTINUOUS
 62
    7
 10
-2518.6171743800151
 20
-791.75146656327706
 11
-2511.8190264455684
 21
-782.13743355554686
  0
LINE
  8
_0-1_
  6
CONTINUOUS
 62
    7
 10
-2511.8190264455684
 20
-782.13743355554686
 11
-2506.3046436539285
 21
-770.99999999999682
  0
LINE
  8
_0-1_
  6
CONTINUOUS
 62
    7
 10
-2506.3046436539285
 20
-770.99999999999682
 11
-2502.2415777358065
 21
-758.67757117939891
  0
LINE
  8
_0-1_
  6
CONTINUOUS
 62
    7
 10
-2502.2415777358065
 20
-758.67757117939891
 11
-2499.7532828931144
 21
-745.54455785801736
  0
LINE
  8
_0-1_
  6
CONTINUOUS
 62
    7
 10
-2499.7532828931144
 20
-745.54455785801736
 11
-2498.9153647055091
 21
-731.99999999999682
  0
LINE
  8
_0-1_
  6
CONTINUOUS
 62
    7
 10
2057.6807332367121
 20
882.00000000000273
 11
2057.6807332367121
 21
810.00000000000341
  0
LINE
  8
_0-1_
  6
CONTINUOUS
 62
    7
 10
2906.2088706767117
 20
882.00000000000273
 11
2906.2088706767117
 21
810.00000000000341
  0
LINE
  8
_0-1_
  6
CONTINUOUS
 62
    7
 10
2464.974239207912
 20
732.00000000000273
 11
2464.974239207912
 21
732.00000000000273
  0
LINE
  8
_0-1_
  6
CONTINUOUS
 62
    7
 10
2464.974239207912
 20
732.00000000000273
 11
2464.1363210203067
 21
745.54455785802327
  0
LINE
  8
_0-1_
  6
CONTINUOUS
 62
    7
 10
2464.1363210203067
 20
745.54455785802327
 11
2461.6480261776146
 21
758.67757117940494
  0
LINE
  8
_0-1_
  6
CONTINUOUS
 62
    7
 10
2461.6480261776146
 20
758.67757117940494
 11
2457.5849602594926
 21
771.00000000000273
  0
LINE
  8
_0-1_
  6
CONTINUOUS
 62
    7
 10
2457.5849602594926
 20
771.00000000000273
 11
2452.0705774678527
 21
782.13743355555278
  0
LINE
  8
_0-1_
  6
CONTINUOUS
 62
    7
 10
2452.0705774678527
 20
782.13743355555278
 11
2445.272429533406
 21
791.75146656328297
  0
LINE
  8
_0-1_
  6
CONTINUOUS
 62
    7
 10
2445.272429533406
 20
791.75146656328297
 11
2437.3970747411117
 21
799.54998149518894
  0
LINE
  8
_0-1_
  6
CONTINUOUS
 62
    7
 10
2437.3970747411117
 20
799.54998149518894
 11
2428.6838017612131
 21
805.29602442130363
  0
LINE
  8
_0-1_
  6
CONTINUOUS
 62
    7
 10
2428.6838017612131
 20
805.29602442130363
 11
2419.3973589840739
 21
808.81500473495498
  0
LINE
  8
_0-1_
  6
CONTINUOUS
 62
    7
 10
2419.3973589840739
 20
808.81500473495498
 11
2409.819910274312
 21
810.00000000000273
  0
LINE
  8
_0-1_
  6
CONTINUOUS
 62
    7
 10
2554.0696936391118
 20
810.00000000000273
 11
2554.0696936391118
 21
810.00000000000273
  0
LINE
  8
_0-1_
  6
CONTINUOUS
 62
    7
 10
2554.0696936391118
 20
810.00000000000273
 11
2544.4922449293499
 21
808.81500473495498
  0
LINE
  8
_0-1_
  6
CONTINUOUS
 62
    7
 10
2544.4922449293499
 20
808.81500473495498
 11
2535.2058021522107
 21
805.29602442130363
  0
LINE
  8
_0-1_
  6
CONTINUOUS
 62
    7
 10
2535.2058021522107
 20
805.29602442130363
 11
2526.4925291723121
 21
799.54998149518894
  0
LINE
  8
_0-1_
  6
CONTINUOUS
 62
    7
 10
2526.4925291723121
 20
799.54998149518894
 11
2518.6171743800178
 21
791.75146656328297
  0
LINE
  8
_0-1_
  6
CONTINUOUS
 62
    7
 10
2518.6171743800178
 20
791.75146656328297
 11
2511.8190264455711
 21
782.13743355555278
  0
LINE
  8
_0-1_
  6
CONTINUOUS
 62
    7
 10
2511.8190264455711
 20
782.13743355555278
 11
2506.3046436539312
 21
771.00000000000273
  0
LINE
  8
_0-1_
  6
CONTINUOUS
 62
    7
 10
2506.3046436539312
 20
771.00000000000273
 11
2502.2415777358092
 21
758.67757117940494
  0
LINE
  8
_0-1_
  6
CONTINUOUS
 62
    7
 10
2502.2415777358092
 20
758.67757117940494
 11
2499.7532828931171
 21
745.54455785802327
  0
LINE
  8
_0-1_
  6
CONTINUOUS
 62
    7
 10
2499.7532828931171
 20
745.54455785802327
 11
2498.9153647055118
 21
732.00000000000273
  0
LINE
  8
_0-1_
  6
CONTINUOUS
 62
    7
 10
2464.9742392079115
 20
-731.99999999999682
 11
2464.9742392079115
 21
732.00000000000273
  0
LINE
  8
_0-1_
  6
CONTINUOUS
 62
    7
 10
2498.9153647055123
 20
-731.99999999999682
 11
2498.9153647055123
 21
732.00000000000273
  0
LINE
  8
_0-1_
  6
CENTER2
 62
    4
 10
2481.9448019567117
 20
882.00000000000273
 11
2481.9448019567117
 21
-881.99999999999682
  0
LINE
  8
_0-1_
  6
CONTINUOUS
 62
    7
 10
2057.6807332367121
 20
-809.99999999999659
 11
2057.6807332367121
 21
-881.99999999999682
  0
LINE
  8
_0-1_
  6
CONTINUOUS
 62
    7
 10
2906.2088706767117
 20
-809.99999999999659
 11
2906.2088706767117
 21
-881.99999999999682
  0
LINE
  8
_0-1_
  6
CONTINUOUS
 62
    7
 10
2498.9153647055118
 20
-731.99999999999682
 11
2498.9153647055118
 21
-731.99999999999682
  0
LINE
  8
_0-1_
  6
CONTINUOUS
 62
    7
 10
2498.9153647055118
 20
-731.99999999999682
 11
2499.7532828931171
 21
-745.54455785801736
  0
LINE
  8
_0-1_
  6
CONTINUOUS
 62
    7
 10
2499.7532828931171
 20
-745.54455785801736
 11
2502.2415777358092
 21
-758.67757117939891
  0
LINE
  8
_0-1_
  6
CONTINUOUS
 62
    7
 10
2502.2415777358092
 20
-758.67757117939891
 11
2506.3046436539312
 21
-770.99999999999682
  0
LINE
  8
_0-1_
  6
CONTINUOUS
 62
    7
 10
2506.3046436539312
 20
-770.99999999999682
 11
2511.8190264455711
 21
-782.13743355554686
  0
LINE
  8
_0-1_
  6
CONTINUOUS
 62
    7
 10
2511.8190264455711
 20
-782.13743355554686
 11
2518.6171743800178
 21
-791.75146656327706
  0
LINE
  8
_0-1_
  6
CONTINUOUS
 62
    7
 10
2518.6171743800178
 20
-791.75146656327706
 11
2526.4925291723116
 21
-799.54998149518303
  0
LINE
  8
_0-1_
  6
CONTINUOUS
 62
    7
 10
2526.4925291723116
 20
-799.54998149518303
 11
2535.2058021522107
 21
-805.29602442129772
  0
LINE
  8
_0-1_
  6
CONTINUOUS
 62
    7
 10
2535.2058021522107
 20
-805.29602442129772
 11
2544.4922449293499
 21
-808.81500473494907
  0
LINE
  8
_0-1_
  6
CONTINUOUS
 62
    7
 10
2544.4922449293499
 20
-808.81500473494907
 11
2554.0696936391118
 21
-809.99999999999682
  0
LINE
  8
_0-1_
  6
CONTINUOUS
 62
    7
 10
2409.819910274312
 20
-809.99999999999682
 11
2409.819910274312
 21
-809.99999999999682
  0
LINE
  8
_0-1_
  6
CONTINUOUS
 62
    7
 10
2409.819910274312
 20
-809.99999999999682
 11
2419.3973589840739
 21
-808.81500473494907
  0
LINE
  8
_0-1_
  6
CONTINUOUS
 62
    7
 10
2419.3973589840739
 20
-808.81500473494907
 11
2428.6838017612131
 21
-805.29602442129772
  0
LINE
  8
_0-1_
  6
CONTINUOUS
 62
    7
 10
2428.6838017612131
 20
-805.29602442129772
 11
2437.3970747411117
 21
-799.54998149518303
  0
LINE
  8
_0-1_
  6
CONTINUOUS
 62
    7
 10
2437.3970747411117
 20
-799.54998149518303
 11
2445.272429533406
 21
-791.75146656327706
  0
LINE
  8
_0-1_
  6
CONTINUOUS
 62
    7
 10
2445.272429533406
 20
-791.75146656327706
 11
2452.0705774678527
 21
-782.13743355554686
  0
LINE
  8
_0-1_
  6
CONTINUOUS
 62
    7
 10
2452.0705774678527
 20
-782.13743355554686
 11
2457.5849602594926
 21
-770.99999999999682
  0
LINE
  8
_0-1_
  6
CONTINUOUS
 62
    7
 10
2457.5849602594926
 20
-770.99999999999682
 11
2461.6480261776146
 21
-758.67757117939891
  0
LINE
  8
_0-1_
  6
CONTINUOUS
 62
    7
 10
2461.6480261776146
 20
-758.67757117939891
 11
2464.1363210203067
 21
-745.54455785801736
  0
LINE
  8
_0-1_
  6
CONTINUOUS
 62
    7
 10
2464.1363210203067
 20
-745.54455785801736
 11
2464.974239207912
 21
-731.99999999999682
  0
LINE
  8
_0-1_
  6
CONTINUOUS
 62
    7
 10
-1680.0857120989122
 20
810.00000000000341
 11
-1680.0857120989122
 21
-809.99999999999659
  0
LINE
  8
_0-1_
  6
CONTINUOUS
 62
    7
 10
-1714.0268375965127
 20
810.00000000000341
 11
-1714.0268375965127
 21
-809.99999999999659
  0
LINE
  8
_0-1_
  6
CONTINUOUS
 62
    7
 10
1714.0268375965156
 20
810.00000000000341
 11
1714.0268375965156
 21
-809.99999999999659
  0
LINE
  8
_0-1_
  6
CONTINUOUS
 62
    7
 10
1680.0857120989151
 20
810.00000000000341
 11
1680.0857120989151
 21
-809.99999999999659
  0
LINE
  8
_0-1_
  6
CONTINUOUS
 62
    7
 10
-2121.3203435596411
 20
810.00000000000341
 11
-2121.3203435596411
 21
-809.99999999999659
  0
LINE
  8
_0-1_
  6
CONTINUOUS
 62
    7
 10
0.0000000000017053
 20
810.00000000000341
 11
0.0000000000017053
 21
-809.99999999999659
  0
LINE
  8
_0-1_
  6
CONTINUOUS
 62
    7
 10
2121.3203435596442
 20
810.00000000000341
 11
2121.3203435596442
 21
-809.99999999999659
  0
POINT
  8
_0-1_
 62
    7
 10
0.0000000000017053
 20
-881.99999999999682
  0
POINT
  8
_0-1_
 62
    7
 10
0.0000000000017053
 20
882.00000000000273
  0
LINE
  8
_0-1_
  6
CONTINUOUS
 62
    7
 10
-1680.9902576697311
 20
810.00000000000341
 11
-2906.208870676709
 21
810.00000000000341
  0
LINE
  8
_0-1_
  6
CONTINUOUS
 62
    7
 10
-1680.9902576697311
 20
882.00000000000273
 11
-2906.208870676709
 21
882.00000000000273
  0
LINE
  8
_0-1_
  6
CONTINUOUS
 62
    7
 10
-2906.208870676709
 20
-881.99999999999682
 11
-1680.9902576697307
 21
-881.99999999999682
  0
LINE
  8
_0-1_
  6
CONTINUOUS
 62
    7
 10
-1680.9902576697311
 20
-809.99999999999659
 11
-2906.208870676709
 21
-809.99999999999659
  0
LINE
  8
_0-1_
  6
CONTINUOUS
 62
    7
 10
-1500.9902576697307
 20
-881.99999999999682
 11
1500.9902576697336
 21
-881.99999999999682
  0
LINE
  8
_0-1_
  6
CONTINUOUS
 62
    7
 10
1680.9902576697336
 20
-881.99999999999682
 11
2906.2088706767117
 21
-881.99999999999682
  0
LINE
  8
_0-1_
  6
CONTINUOUS
 62
    7
 10
2906.2088706767117
 20
-809.99999999999659
 11
1680.9902576697336
 21
-809.99999999999659
  0
LINE
  8
_0-1_
  6
CONTINUOUS
 62
    7
 10
1500.9902576697336
 20
-809.99999999999659
 11
-1500.9902576697311
 21
-809.99999999999659
  0
LINE
  8
_0-1_
  6
CONTINUOUS
 62
    7
 10
2906.2088706767117
 20
810.00000000000341
 11
1680.0857120989151
 21
810.00000000000341
  0
LINE
  8
_0-1_
  6
CONTINUOUS
 62
    7
 10
1500.9902576697336
 20
810.00000000000341
 11
-1500.9902576697311
 21
810.00000000000341
  0
LINE
  8
_0-1_
  6
CONTINUOUS
 62
    7
 10
2906.2088706767117
 20
882.00000000000273
 11
1680.9902576697336
 21
882.00000000000273
  0
LINE
  8
_0-1_
  6
CONTINUOUS
 62
    7
 10
1501.8948032402286
 20
882.00000000000273
 11
-1501.8948032402261
 21
882.00000000000273
  0
ENDBLK
  0
BLOCK
  2
-006-_____________立面
 70
   64
 10
0
 20
0
 30
0
  0
INSERT
  2
-005-ベ__ス立面1
  8
_0-0_
 10
-0.0000000000009592
 20
1157.6270451947325
 41
1
 42
1
 50
0
  0
INSERT
  2
-000-30-1_1_
  8
_0-0_
 10
-1590.990257669732
 20
2725.1270451947357
 41
0.8
 42
0.8
 50
0
  0
INSERT
  2
-001-30-1
  8
_0-0_
 10
-1590.990257669732
 20
2761.1270451947362
 41
0.8
 42
0.8
 50
0
  0
INSERT
  2
-002-M30-2_1_
  8
_0-0_
 10
-1590.9902576697316
 20
2841.5386088311002
 41
0.8
 42
0.8
 50
0
  0
INSERT
  2
-003-_____
  8
_0-0_
 10
-1829.4620196250712
 20
2474.167141301225
 41
1
 42
1
 50
0
  0
INSERT
  2
-004-M30-2
  8
_0-0_
 10
-1590.990257669732
 20
2867.0267724674632
 41
0.5
 42
0.5
 50
180
  0
INSERT
  2
-002-M30-2_1_
  8
_0-0_
 10
-1590.9902576697316
 20
2985.5386088311002
 41
0.8
 42
0.8
 50
0
  0
LINE
  8
_0-0_
  6
DASHED1
 62
    7
 10
-1680.990257669732
 20
2711.6270451947353
 11
-1680.990257669732
 21
2039.6270451947353
  0
LINE
  8
_0-0_
  6
DASHED1
 62
    7
 10
-1500.990257669732
 20
2711.6270451947353
 11
-1500.990257669732
 21
2039.6270451947353
  0
LINE
  8
_0-0_
  6
DASHED1
 62
    7
 10
-1669.626257669732
 20
2711.6270451947353
 11
-1669.626257669732
 21
2315.6270451947357
  0
LINE
  8
_0-0_
  6
DASHED1
 62
    7
 10
-1512.3542576697319
 20
2711.6270451947353
 11
-1512.3542576697319
 21
2315.6270451947357
  0
POINT
  8
_0-0_
 62
    7
 10
-1950.9902576697316
 20
-5724.3729548052652
  0
LINE
  8
_0-0_
  6
DASHED1
 62
    7
 10
-2220.9902576697314
 20
-5274.3729548052652
 11
-2400.9902576697314
 21
-5274.3729548052652
  0
ARC
  8
_0-0_
  6
DASHED1
 62
    7
 10
-1950.9902576697316
 20
-5274.3729548052652
 40
270
 50
180
 51
0
  0
LINE
  8
_0-0_
  6
DASHED1
 62
    7
 10
-1680.9902576697316
 20
275.62704519473573
 11
-1680.9902576697316
 21
-5274.3729548052652
  0
ARC
  8
_0-0_
  6
DASHED1
 62
    7
 10
-1950.9902576697316
 20
-5274.3729548052652
 40
450
 50
180
 51
0
  0
LINE
  8
_0-0_
  6
DASHED1
 62
    7
 10
-1500.9902576697316
 20
275.62704519473573
 11
-1500.9902576697316
 21
-5274.3729548052652
  0
LINE
  8
_0-0_
  6
CENTER2
 62
    4
 10
-1590.9902576697316
 20
3215.6270451947357
 11
-1590.9902576697316
 21
-5724.3729548052652
  0
INSERT
  2
-000-30-1_1_
  8
_0-0_
 10
-2651.6504294495535
 20
2725.1270451947357
 41
0.8
 42
0.8
 50
0
  0
INSERT
  2
-001-30-1
  8
_0-0_
 10
-2651.6504294495535
 20
2761.1270451947362
 41
0.8
 42
0.8
 50
0
  0
INSERT
  2
-002-M30-2_1_
  8
_0-0_
 10
-2651.650429449553
 20
2841.5386088311002
 41
0.8
 42
0.8
 50
0
  0
INSERT
  2
-004-M30-2
  8
_0-0_
 10
-2651.6504294495535
 20
2867.0267724674632
 41
0.5
 42
0.5
 50
180
  0
INSERT
  2
-002-M30-2_1_
  8
_0-0_
 10
-2651.650429449553
 20
2985.5386088311002
 41
0.8
 42
0.8
 50
0
  0
LINE
  8
_0-0_
  6
DASHED1
 62
    7
 10
-2741.6504294495535
 20
2711.6270451947353
 11
-2741.6504294495535
 21
2039.6270451947353
  0
LINE
  8
_0-0_
  6
DASHED1
 62
    7
 10
-2561.6504294495535
 20
2711.6270451947353
 11
-2561.6504294495535
 21
2039.6270451947353
  0
LINE
  8
_0-0_
  6
DASHED1
 62
    7
 10
-2730.2864294495535
 20
2711.6270451947353
 11
-2730.2864294495535
 21
2315.6270451947357
  0
LINE
  8
_0-0_
  6
DASHED1
 62
    7
 10
-2573.0144294495531
 20
2711.6270451947353
 11
-2573.0144294495531
 21
2315.6270451947357
  0
POINT
  8
_0-0_
 62
    7
 10
-3011.650429449553
 20
-5724.3729548052652
  0
LINE
  8
_0-0_
  6
DASHED1
 62
    7
 10
-3281.650429449553
 20
-5274.3729548052652
 11
-3461.650429449553
 21
-5274.3729548052652
  0
ARC
  8
_0-0_
  6
DASHED1
 62
    7
 10
-3011.650429449553
 20
-5274.3729548052652
 40
270
 50
180
 51
0
  0
LINE
  8
_0-0_
  6
DASHED1
 62
    7
 10
-2741.650429449553
 20
275.62704519473573
 11
-2741.650429449553
 21
-5274.3729548052652
  0
ARC
  8
_0-0_
  6
DASHED1
 62
    7
 10
-3011.650429449553
 20
-5274.3729548052652
 40
450
 50
180
 51
0
  0
LINE
  8
_0-0_
  6
DASHED1
 62
    7
 10
-2561.650429449553
 20
275.62704519473573
 11
-2561.650429449553
 21
-5274.3729548052652
  0
LINE
  8
_0-0_
  6
CENTER2
 62
    4
 10
-2651.650429449553
 20
3215.6270451947357
 11
-2651.650429449553
 21
-5724.3729548052652
  0
LINE
  8
_0-0_
  6
CONTINUOUS
 62
    7
 10
-2741.650429449553
 20
1967.627045194736
 11
-2741.650429449553
 21
347.62704519473584
  0
LINE
  8
_0-0_
  6
CONTINUOUS
 62
    7
 10
-2561.650429449553
 20
1967.627045194736
 11
-2561.650429449553
 21
347.62704519473584
  0
LINE
  8
_0-0_
  6
CONTINUOUS
 62
    7
 10
-1680.9902576697316
 20
2039.6270451947353
 11
-1680.9902576697316
 21
275.62704519473573
  0
LINE
  8
_0-0_
  6
CONTINUOUS
 62
    7
 10
-1500.9902576697316
 20
2039.6270451947353
 11
-1500.9902576697316
 21
275.62704519473573
  0
INSERT
  2
-000-30-1_1_
  8
_0-0_
 10
1590.9902576697332
 20
2725.1270451947357
 41
-0.8
 42
0.8
 50
0
  0
INSERT
  2
-001-30-1
  8
_0-0_
 10
1590.9902576697332
 20
2761.1270451947362
 41
-0.8
 42
0.8
 50
0
  0
INSERT
  2
-002-M30-2_1_
  8
_0-0_
 10
1590.9902576697327
 20
2841.5386088311002
 41
-0.8
 42
0.8
 50
0
  0
INSERT
  2
-003-_____
  8
_0-0_
 10
1829.4620196250721
 20
2474.167141301225
 41
-1
 42
1
 50
0
  0
INSERT
  2
-004-M30-2
  8
_0-0_
 10
1590.9902576697332
 20
2867.0267724674632
 41
-0.5
 42
0.5
 50
-180
  0
INSERT
  2
-002-M30-2_1_
  8
_0-0_
 10
1590.9902576697327
 20
2985.5386088311002
 41
-0.8
 42
0.8
 50
0
  0
LINE
  8
_0-0_
  6
DASHED1
 62
    7
 10
1680.9902576697332
 20
2711.6270451947353
 11
1680.9902576697332
 21
2039.6270451947353
  0
LINE
  8
_0-0_
  6
DASHED1
 62
    7
 10
1500.9902576697332
 20
2711.6270451947353
 11
1500.9902576697332
 21
2039.6270451947353
  0
LINE
  8
_0-0_
  6
DASHED1
 62
    7
 10
1669.6262576697334
 20
2711.6270451947353
 11
1669.6262576697334
 21
2315.6270451947357
  0
LINE
  8
_0-0_
  6
DASHED1
 62
    7
 10
1512.3542576697332
 20
2711.6270451947353
 11
1512.3542576697332
 21
2315.6270451947357
  0
POINT
  8
_0-0_
 62
    7
 10
1950.9902576697327
 20
-5724.3729548052652
  0
LINE
  8
_0-0_
  6
DASHED1
 62
    7
 10
2220.9902576697327
 20
-5274.3729548052652
 11
2400.9902576697327
 21
-5274.3729548052652
  0
ARC
  8
_0-0_
  6
DASHED1
 62
    7
 10
1950.9902576697327
 20
-5274.3729548052652
 40
270
 50
180
 51
0
  0
LINE
  8
_0-0_
  6
DASHED1
 62
    7
 10
1680.9902576697327
 20
275.62704519473573
 11
1680.9902576697327
 21
-5274.3729548052652
  0
ARC
  8
_0-0_
  6
DASHED1
 62
    7
 10
1950.9902576697327
 20
-5274.3729548052652
 40
450
 50
180
 51
0
  0
LINE
  8
_0-0_
  6
DASHED1
 62
    7
 10
1500.9902576697327
 20
275.62704519473573
 11
1500.9902576697327
 21
-5274.3729548052652
  0
LINE
  8
_0-0_
  6
CENTER2
 62
    4
 10
1590.9902576697327
 20
3215.6270451947357
 11
1590.9902576697327
 21
-5724.3729548052652
  0
INSERT
  2
-000-30-1_1_
  8
_0-0_
 10
2651.6504294495544
 20
2725.1270451947357
 41
-0.8
 42
0.8
 50
0
  0
INSERT
  2
-001-30-1
  8
_0-0_
 10
2651.6504294495544
 20
2761.1270451947362
 41
-0.8
 42
0.8
 50
0
  0
INSERT
  2
-002-M30-2_1_
  8
_0-0_
 10
2651.6504294495544
 20
2841.5386088311002
 41
-0.8
 42
0.8
 50
0
  0
INSERT
  2
-004-M30-2
  8
_0-0_
 10
2651.6504294495544
 20
2867.0267724674632
 41
-0.5
 42
0.5
 50
-180
  0
INSERT
  2
-002-M30-2_1_
  8
_0-0_
 10
2651.6504294495544
 20
2985.5386088311002
 41
-0.8
 42
0.8
 50
0
  0
LINE
  8
_0-0_
  6
DASHED1
 62
    7
 10
2741.6504294495544
 20
2711.6270451947353
 11
2741.6504294495544
 21
2039.6270451947353
  0
LINE
  8
_0-0_
  6
DASHED1
 62
    7
 10
2561.6504294495544
 20
2711.6270451947353
 11
2561.6504294495544
 21
2039.6270451947353
  0
LINE
  8
_0-0_
  6
DASHED1
 62
    7
 10
2730.2864294495548
 20
2711.6270451947353
 11
2730.2864294495548
 21
2315.6270451947357
  0
LINE
  8
_0-0_
  6
DASHED1
 62
    7
 10
2573.0144294495544
 20
2711.6270451947353
 11
2573.0144294495544
 21
2315.6270451947357
  0
POINT
  8
_0-0_
 62
    7
 10
3011.6504294495544
 20
-5724.3729548052652
  0
LINE
  8
_0-0_
  6
DASHED1
 62
    7
 10
3281.6504294495544
 20
-5274.3729548052652
 11
3461.6504294495544
 21
-5274.3729548052652
  0
ARC
  8
_0-0_
  6
DASHED1
 62
    7
 10
3011.6504294495544
 20
-5274.3729548052652
 40
270
 50
180
 51
0
  0
LINE
  8
_0-0_
  6
DASHED1
 62
    7
 10
2741.6504294495544
 20
275.62704519473573
 11
2741.6504294495544
 21
-5274.3729548052652
  0
ARC
  8
_0-0_
  6
DASHED1
 62
    7
 10
3011.6504294495544
 20
-5274.3729548052652
 40
450
 50
180
 51
0
  0
LINE
  8
_0-0_
  6
DASHED1
 62
    7
 10
2561.6504294495544
 20
275.62704519473573
 11
2561.6504294495544
 21
-5274.3729548052652
  0
LINE
  8
_0-0_
  6
CENTER2
 62
    4
 10
2651.6504294495544
 20
3215.6270451947357
 11
2651.6504294495544
 21
-5724.3729548052652
  0
LINE
  8
_0-0_
  6
CONTINUOUS
 62
    7
 10
2741.6504294495544
 20
1967.627045194736
 11
2741.6504294495544
 21
347.62704519473584
  0
LINE
  8
_0-0_
  6
CONTINUOUS
 62
    7
 10
2561.6504294495544
 20
1967.627045194736
 11
2561.6504294495544
 21
347.62704519473584
  0
LINE
  8
_0-0_
  6
CONTINUOUS
 62
    7
 10
1680.9902576697327
 20
2039.6270451947353
 11
1680.9902576697327
 21
275.62704519473573
  0
LINE
  8
_0-0_
  6
CONTINUOUS
 62
    7
 10
1500.9902576697327
 20
2039.6270451947353
 11
1500.9902576697327
 21
275.62704519473573
  0
ENDBLK
  0
BLOCK
  2
-007-巻上__起伏____側面
 70
   64
 10
0
 20
0
 30
0
  0
LINE
  8
_0-1_
  6
CONTINUOUS
 62
    7
 10
-178.39175168892325
 20
230.22918989826934
 11
-555.05596999647025
 21
230.22918989826934
  0
LINE
  8
_0-1_
  6
CONTINUOUS
 62
    7
 10
994.60043358523217
 20
3074.6916076663833
 11
-301.39175168892478
 21
3074.6916076663833
  0
LINE
  8
_0-1_
  6
CONTINUOUS
 62
    7
 10
-301.39175168892478
 20
3074.6916076663833
 11
-301.39175168892478
 21
2989.537469265355
  0
LINE
  8
_0-1_
  6
CONTINUOUS
 62
    7
 10
994.60043358523217
 20
2989.537469265355
 11
-301.39175168892478
 21
2989.537469265355
  0
LINE
  8
_0-1_
  6
CONTINUOUS
 62
    7
 10
994.60043358523217
 20
3074.6916076663833
 11
994.60043358523217
 21
2989.537469265355
  0
LINE
  8
_0-1_
  6
CONTINUOUS
 62
    7
 10
-301.39175168892478
 20
3074.6916076663833
 11
23.358445018300529
 21
3144.3663775843702
  0
LINE
  8
_0-1_
  6
CONTINUOUS
 62
    7
 10
669.85805160385041
 20
3144.3663775843702
 11
23.358445018300529
 21
3144.3663775843702
  0
LINE
  8
_0-1_
  6
CONTINUOUS
 62
    7
 10
994.60824831107493
 20
3074.6916076663838
 11
669.85805160385041
 21
3144.3663775843702
  0
LINE
  8
_0-1_
  6
CONTINUOUS
 62
    7
 10
-301.39175168892478
 20
2726.3285960729359
 11
994.60043358523217
 21
2726.3285960729359
  0
LINE
  8
_0-1_
  6
CONTINUOUS
 62
    7
 10
-301.39175168892478
 20
2726.3285960729359
 11
-301.39175168892478
 21
760.00715036957331
  0
LINE
  8
_0-1_
  6
CONTINUOUS
 62
    7
 10
994.60824831107493
 20
2726.3285960729354
 11
994.60824831107493
 21
760.00715036957286
  0
LINE
  8
_0-1_
  6
CONTINUOUS
 62
    7
 10
-301.39175168892478
 20
2726.3285960729359
 11
-38.1828784965046
 21
2989.537469265355
  0
LINE
  8
_0-1_
  6
CONTINUOUS
 62
    7
 10
994.60824831107493
 20
2726.3285960729359
 11
731.39937511865469
 21
2989.537469265355
  0
LINE
  8
_0-1_
  6
CONTINUOUS
 62
    7
 10
-555.05596999647025
 20
473.35276354075336
 11
-555.05596999647025
 21
230.22918989826934
  0
LINE
  8
_0-1_
  6
CONTINUOUS
 62
    7
 10
1248.2724666186205
 20
473.35276354075336
 11
1248.2724666186205
 21
230.22918989826934
  0
LINE
  8
_0-1_
  6
CONTINUOUS
 62
    7
 10
-246.84521029434279
 20
473.35276354075336
 11
-555.05596999647025
 21
473.35276354075336
  0
LINE
  8
_0-1_
  6
CONTINUOUS
 62
    7
 10
-246.84521029434279
 20
473.35276354075336
 11
-246.84521029434279
 21
760.00715036957331
  0
LINE
  8
_0-1_
  6
CONTINUOUS
 62
    7
 10
940.06170691649288
 20
473.35276354075336
 11
940.06170691649288
 21
760.00715036957331
  0
LINE
  8
_0-1_
  6
CONTINUOUS
 62
    7
 10
-238.39175168892325
 20
2452.9649320157505
 11
-238.39175168892325
 21
2451.0535817904652
  0
LINE
  8
_0-1_
  6
CONTINUOUS
 62
    7
 10
-238.39175168892325
 20
2451.0535817904652
 11
166.69321173088747
 21
2529.3663775843702
  0
LINE
  8
_0-1_
  6
CONTINUOUS
 62
    7
 10
-238.39175168892325
 20
2451.0535817904652
 11
-238.39175168892325
 21
2387.7518834636926
  0
LINE
  8
_0-1_
  6
CONTINUOUS
 62
    7
 10
346.6082483110763
 20
2387.7518834636926
 11
-238.39175168892325
 21
2387.7518834636926
  0
LINE
  8
_0-1_
  6
CONTINUOUS
 62
    7
 10
931.60824831107584
 20
2452.9649320157505
 11
931.60824831107584
 21
2451.0535817904652
  0
LINE
  8
_0-1_
  6
CONTINUOUS
 62
    7
 10
931.60824831107584
 20
2451.0535817904652
 11
931.60824831107584
 21
2387.7518834636926
  0
LINE
  8
_0-1_
  6
CONTINUOUS
 62
    7
 10
346.6082483110763
 20
2387.7518834636926
 11
931.60824831107584
 21
2387.7518834636926
  0
LINE
  8
_0-1_
  6
CONTINUOUS
 62
    7
 10
526.52328489126512
 20
2529.3663775843702
 11
166.69321173088747
 21
2529.3663775843702
  0
LINE
  8
_0-1_
  6
CONTINUOUS
 62
    7
 10
931.60824831107584
 20
2451.0535817904652
 11
526.52328489126512
 21
2529.3663775843702
  0
LINE
  8
_0-1_
  6
CONTINUOUS
 62
    7
 10
-238.39175168892325
 20
2206.6014267076457
 11
-238.39175168892325
 21
431.3376020813547
  0
LINE
  8
_0-1_
  6
CONTINUOUS
 62
    7
 10
931.60824831107584
 20
2206.6014267076457
 11
-238.39175168892325
 21
2206.6014267076457
  0
LINE
  8
_0-1_
  6
CONTINUOUS
 62
    7
 10
931.60824831107584
 20
2206.6014267076457
 11
931.60824831107584
 21
431.3376020813547
  0
LINE
  8
_0-1_
  6
CONTINUOUS
 62
    7
 10
931.60824831107584
 20
431.3376020813547
 11
-238.39175168892325
 21
431.3376020813547
  0
LINE
  8
_0-1_
  6
CONTINUOUS
 62
    7
 10
1066.6082483110763
 20
177.72848427759683
 11
1066.6082483110763
 21
101.1032183542126
  0
LINE
  8
_0-1_
  6
CONTINUOUS
 62
    7
 10
1066.6082483110763
 20
101.1032183542126
 11
1066.6082483110763
 21
-38.245537088076418
  0
LINE
  8
_0-1_
  6
CONTINUOUS
 62
    7
 10
-373.39175168892325
 20
177.72848427759683
 11
-373.39175168892325
 21
101.1032183542126
  0
LINE
  8
_0-1_
  6
CONTINUOUS
 62
    7
 10
-373.39175168892325
 20
177.72848427759683
 11
1066.6082483110763
 21
177.72848427759683
  0
LINE
  8
_0-1_
  6
CONTINUOUS
 62
    7
 10
-373.39175168892325
 20
-38.245537088076418
 11
1066.6082483110763
 21
-38.245537088076418
  0
LINE
  8
_0-1_
  6
CONTINUOUS
 62
    7
 10
-373.39175168892325
 20
101.1032183542126
 11
-373.39175168892325
 21
-38.245537088076418
  0
LINE
  8
_0-1_
  6
CONTINUOUS
 62
    7
 10
-373.39175168892325
 20
98.021674643053984
 11
1066.6082483110763
 21
98.021674643053984
  0
LINE
  8
_0-1_
  6
CONTINUOUS
 62
    7
 10
-238.39175168892325
 20
2206.6014267076457
 11
-57.241294932876485
 21
2387.7518834636926
  0
LINE
  8
_0-1_
  6
CONTINUOUS
 62
    7
 10
931.60824831107584
 20
2206.6014267076457
 11
750.45779155502919
 21
2387.7518834636926
  0
LINE
  8
_0-1_
  6
CONTINUOUS
 62
    7
 10
871.60824831107584
 20
431.3376020813547
 11
871.60824831107584
 21
177.72848427759683
  0
LINE
  8
_0-1_
  6
CONTINUOUS
 62
    7
 10
-178.39175168892325
 20
431.3376020813547
 11
-178.39175168892325
 21
177.72848427759683
  0
LINE
  8
_0-1_
  6
CONTINUOUS
 62
    7
 10
-301.39175168892478
 20
2242.2015720216614
 11
-218.6911647218966
 21
2242.2015720216614
  0
LINE
  8
_0-1_
  6
CONTINUOUS
 62
    7
 10
896.00810299706018
 20
2242.2015720216614
 11
994.60043358523217
 21
2242.2015720216614
  0
LINE
  8
_0-1_
  6
CONTINUOUS
 62
    7
 10
-301.39175168892478
 20
760.00715036957331
 11
-246.84521029434279
 21
760.00715036957331
  0
LINE
  8
_0-1_
  6
CONTINUOUS
 62
    7
 10
931.60824831107584
 20
760.00715036957331
 11
994.60043358523217
 21
760.00715036957331
  0
LINE
  8
_0-1_
  6
CONTINUOUS
 62
    7
 10
1248.2724666186205
 20
473.35276354075336
 11
931.60824831107584
 21
473.35276354075336
  0
LINE
  8
_0-1_
  6
CONTINUOUS
 62
    7
 10
1248.2724666186205
 20
388.41831230375334
 11
871.60824831107584
 21
388.41831230375334
  0
LINE
  8
_0-1_
  6
CONTINUOUS
 62
    7
 10
-178.39175168892325
 20
388.41831230375334
 11
-555.05596999647025
 21
388.41831230375334
  0
LINE
  8
_0-1_
  6
CONTINUOUS
 62
    7
 10
1248.2724666186205
 20
230.22918989826934
 11
871.60824831107584
 21
230.22918989826934
  0
LINE
  8
_0-1_
  6
CONTINUOUS
 62
    7
 10
1248.2724666186205
 20
230.22918989826934
 11
1248.2724666186205
 21
-2261.6336224156294
  0
LINE
  8
_0-1_
  6
CONTINUOUS
 62
    7
 10
-922.36683602662652
 20
-2640.8968187981141
 11
-922.36683602662652
 21
-2711.6336224156294
  0
LINE
  8
_0-1_
  6
CONTINUOUS
 62
    7
 10
1012.2470765509138
 20
-2640.8968187981141
 11
1012.2470765509138
 21
-2711.6336224156294
  0
LINE
  8
_0-1_
  6
CONTINUOUS
 62
    7
 10
1012.2470765509138
 20
-2711.6336224156294
 11
-922.36683602662652
 21
-2711.6336224156294
  0
LINE
  8
_0-1_
  6
CONTINUOUS
 62
    7
 10
942.27246661862023
 20
-2297.6336224156298
 11
942.27246661862023
 21
-2640.8968187981141
  0
LINE
  8
_0-1_
  6
CONTINUOUS
 62
    7
 10
978.27246661862034
 20
-2261.6336224156294
 11
1248.2724666186205
 21
-2261.6336224156294
  0
ARC
  8
_0-1_
  6
CONTINUOUS
 62
    7
 10
978.27246661862034
 20
-2297.6336224156289
 40
36
 50
90
 51
180
  0
LINE
  8
_0-1_
  6
CONTINUOUS
 62
    7
 10
1248.2724666186205
 20
-2201.6336224156294
 11
888.27246661862034
 21
-2201.6336224156294
  0
LINE
  8
_0-1_
  6
CONTINUOUS
 62
    7
 10
862.81662249590465
 20
-2181.2728222994342
 11
-120.32741475286798
 21
-2181.2728222994342
  0
LINE
  8
_0-1_
  6
CONTINUOUS
 62
    7
 10
888.27246661862034
 20
-2206.7286664221501
 11
888.27246661862034
 21
-2640.8968187981141
  0
LINE
  8
_0-1_
  6
CONTINUOUS
 62
    7
 10
862.81662249590465
 20
-2181.2728222994342
 11
888.27246661862034
 21
-2206.7286664221501
  0
LINE
  8
_0-1_
  6
CONTINUOUS
 62
    7
 10
-143.02816764667057
 20
-2196.2266673778513
 11
-120.32741475286798
 21
-2181.2728222994342
  0
ARC
  8
_0-1_
  6
CONTINUOUS
 62
    7
 10
568.21618678573827
 20
-1403.6336224156296
 40
1200
 50
288.16252834841799
 51
55.478630764424921
  0
ARC
  8
_0-1_
  6
CONTINUOUS
 62
    7
 10
568.21618678573827
 20
-1403.6336224156296
 40
1308
 50
288.9292496372347
 51
58.673067421843484
  0
ARC
  8
_0-1_
  6
CONTINUOUS
 62
    7
 10
568.21618678573827
 20
-1403.6336224156296
 40
1236
 50
287.61590806064373
 51
56.61876105711886
  0
ARC
  8
_0-1_
  6
CONTINUOUS
 62
    7
 10
568.21618678573827
 20
-1403.6336224156296
 40
1200
 50
221.33757450470603
 51
285.46879809758292
  0
CIRCLE
  8
_0-1_
  6
CONTINUOUS
 62
    7
 10
568.21618678573827
 20
-1403.6336224156296
 40
360
  0
CIRCLE
  8
_0-1_
  6
CONTINUOUS
 62
    7
 10
-143.02816764667057
 20
-1074.630711314267
 40
288
  0
ARC
  8
_0-1_
  6
CONTINUOUS
 62
    7
 10
568.21618678573827
 20
-1403.6336224156296
 40
570
 50
171.01496920406413
 51
138.56174541715757
  0
LINE
  8
_0-1_
  6
CONTINUOUS
 62
    7
 10
-479.84170230937252
 20
230.22918989826934
 11
-479.84170230937252
 21
106.78062506298573
  0
LINE
  8
_0-1_
  6
CONTINUOUS
 62
    7
 10
-667.78381321426218
 20
101.1032183542126
 11
-373.39175168892325
 21
101.1032183542126
  0
ARC
  8
_0-1_
  6
CONTINUOUS
 62
    7
 10
-667.78381321426218
 20
65.103218354212515
 40
36
 50
90
 51
180
  0
LINE
  8
_0-1_
  6
CONTINUOUS
 62
    7
 10
-1189.7838132142615
 20
-2607.4783434642486
 11
-1093.783813214262
 21
-2607.4783434642486
  0
LINE
  8
_0-1_
  6
CONTINUOUS
 62
    7
 10
-1189.7838132142615
 20
-210.82521726936079
 11
-1189.7838132142615
 21
-2607.4783434642486
  0
LINE
  8
_0-1_
  6
CONTINUOUS
 62
    7
 10
-1549.7838132142615
 20
-210.82521726936079
 11
-1093.783813214262
 21
-210.82521726936079
  0
ARC
  8
_0-1_
  6
CONTINUOUS
 62
    7
 10
-1549.7838132142615
 20
-2243.6336224156294
 40
232.80840514626874
 50
180
 51
251.75054825777784
  0
LINE
  8
_0-1_
  6
CONTINUOUS
 62
    7
 10
-1189.7838132142615
 20
-2607.4783434642486
 11
-1622.6888638831267
 21
-2464.7322589870014
  0
LINE
  8
_0-1_
  6
CONTINUOUS
 62
    7
 10
-1093.783813214262
 20
-2597.9782242169058
 11
-1093.783813214262
 21
-2607.4783434642486
  0
LINE
  8
_0-1_
  6
CONTINUOUS
 62
    7
 10
-1093.783813214262
 20
-132.49136440665211
 11
-703.78381321426195
 21
-132.49136440665211
  0
LINE
  8
_0-1_
  6
CONTINUOUS
 62
    7
 10
-1093.783813214262
 20
-229.6965915238431
 11
-703.78381321426195
 21
-229.6965915238431
  0
CIRCLE
  8
_0-1_
  6
CONTINUOUS
 62
    7
 10
-1549.7838132142615
 20
-443.63362241562953
 40
150
  0
CIRCLE
  8
_0-1_
  6
CONTINUOUS
 62
    7
 10
-1549.7838132142615
 20
-443.63362241562953
 40
78
  0
CIRCLE
  8
_0-1_
  6
CONTINUOUS
 62
    7
 10
-1549.7838132142615
 20
-2243.6336224156294
 40
150
  0
CIRCLE
  8
_0-1_
  6
CONTINUOUS
 62
    7
 10
-1549.7838132142615
 20
-2243.6336224156294
 40
78
  0
LINE
  8
_0-1_
  6
CONTINUOUS
 62
    7
 10
-1093.783813214262
 20
-132.49136440665211
 11
-1093.783813214262
 21
-2640.8968187981141
  0
LINE
  8
_0-1_
  6
CONTINUOUS
 62
    7
 10
1012.2470765509138
 20
-2640.8968187981141
 11
-1093.783813214262
 21
-2640.8968187981141
  0
LINE
  8
_0-1_
  6
CONTINUOUS
 62
    7
 10
-1093.783813214262
 20
-2570.0911137144662
 11
-665.11105702407633
 21
-2570.0911137144662
  0
LINE
  8
_0-1_
  6
CONTINUOUS
 62
    7
 10
-665.11105702407633
 20
-2570.0911137144662
 11
-665.11105702407633
 21
-2637.3860336210832
  0
LINE
  8
_0-1_
  6
CONTINUOUS
 62
    7
 10
-665.11105702407633
 20
-2570.0911137144662
 11
-141.36360402274136
 21
-2371.3611256293152
  0
LINE
  8
_0-1_
  6
CONTINUOUS
 62
    7
 10
-703.78381321426195
 20
-2153.8002605066581
 11
-703.78381321426195
 21
65.103218354212515
  0
LINE
  8
_0-1_
  6
CONTINUOUS
 62
    7
 10
-661.35740634306876
 20
-2196.2266673778513
 11
-143.02816764667057
 21
-2196.2266673778513
  0
LINE
  8
_0-1_
  6
CONTINUOUS
 62
    7
 10
-703.78381321426195
 20
-2153.8002605066581
 11
-661.35740634306876
 21
-2196.2266673778513
  0
LINE
  8
_0-1_
  6
CENTER2
 62
    4
 10
-1179.9943869814081
 20
-1403.6336224156296
 11
1854.5056747769831
 21
-1403.6336224156296
  0
POINT
  8
_0-1_
 62
    7
 10
-1549.7838132142615
 20
-443.63362241562953
  0
POINT
  8
_0-1_
 62
    7
 10
-1549.7838132142615
 20
-2243.6336224156294
  0
LINE
  8
_0-1_
  6
CONTINUOUS
 62
    7
 10
-1782.5922183605303
 20
-443.63362241562953
 11
-1782.5922183605303
 21
-2243.6336224156294
  0
ARC
  8
_0-1_
  6
CONTINUOUS
 62
    7
 10
-1549.7838132142615
 20
-443.63362241562953
 40
232.80840514626874
 50
69.330542645820486
 51
180
  0
LINE
  8
_0-1_
  6
CENTER2
 62
    4
 10
568.21618678573827
 20
3144.3663775843702
 11
568.21618678573827
 21
-2711.6336224156294
  0
ENDBLK
  0
BLOCK
  2
-008-起伏____
 70
   64
 10
0
 20
0
 30
0
  0
LINE
  8
_0-1_
  6
CONTINUOUS
 62
    7
 10
-305.99685051708178
 20
38.90440735832172
 11
146.0031494829181
 21
38.90440735832172
  0
LINE
  8
_0-1_
  6
CONTINUOUS
 62
    7
 10
-305.99685051708178
 20
-31.095592641678138
 11
146.0031494829181
 21
-31.095592641678138
  0
LINE
  8
_0-1_
  6
CONTINUOUS
 62
    7
 10
-305.99685051708178
 20
-19.095592641677968
 11
146.0031494829181
 21
-19.095592641677968
  0
LINE
  8
_0-1_
  6
CONTINUOUS
 62
    7
 10
-305.99685051708178
 20
26.904407358321549
 11
146.0031494829181
 21
26.904407358321549
  0
LINE
  8
_0-1_
  6
CONTINUOUS
 62
    7
 10
-305.99685051708178
 20
-19.095592641677968
 11
-272.09640021765881
 21
-7.4440060753585158
  0
LINE
  8
_0-1_
  6
CONTINUOUS
 62
    7
 10
-305.99685051708178
 20
26.904407358321549
 11
-272.09640021781439
 21
15.252820792055388
  0
ARC
  8
_0-1_
  6
CONTINUOUS
 62
    7
 10
-275.99685051708178
 20
3.9044073583215777
 40
12
 50
288.96784844042151
 51
71.0321515592927
  0
LINE
  8
_0-1_
  6
CONTINUOUS
 62
    7
 10
-305.99685051708178
 20
-31.095592641678138
 11
-305.99685051708178
 21
-19.095592641677968
  0
LINE
  8
_0-1_
  6
CONTINUOUS
 62
    7
 10
-305.99685051708178
 20
26.904407358321549
 11
-305.99685051708178
 21
38.90440735832172
  0
LINE
  8
_0-1_
  6
CONTINUOUS
 62
    7
 10
146.0031494829181
 20
-19.095592641678394
 11
112.1026991834951
 21
-7.4440060753589421
  0
LINE
  8
_0-1_
  6
CONTINUOUS
 62
    7
 10
146.0031494829181
 20
26.904407358321123
 11
112.10269918365071
 21
15.252820792054962
  0
ARC
  8
_0-1_
  6
CONTINUOUS
 62
    7
 10
116.0031494829181
 20
3.9044073583211514
 40
12
 50
108.9678484407073
 51
251.03215155957849
  0
LINE
  8
_0-1_
  6
CONTINUOUS
 62
    7
 10
146.0031494829181
 20
-31.095592641678138
 11
146.0031494829181
 21
-19.095592641677968
  0
LINE
  8
_0-1_
  6
CONTINUOUS
 62
    7
 10
146.0031494829181
 20
26.904407358321549
 11
146.0031494829181
 21
38.90440735832172
  0
LINE
  8
_0-1_
  6
CONTINUOUS
 62
    7
 10
-187.58884124341108
 20
-51.095592641669754
 11
-187.58884124341108
 21
-33.095592641670777
  0
LINE
  8
_0-1_
  6
CONTINUOUS
 62
    7
 10
-187.58884124341108
 20
58.904407358320583
 11
-187.58884124341108
 21
40.904407358321606
  0
LINE
  8
_0-2_
  6
CONTINUOUS
 62
    7
 10
176.53798898580709
 20
-33.095592641670777
 11
176.53798898580709
 21
40.904407358321606
  0
LINE
  8
_0-1_
  6
CONTINUOUS
 62
    7
 10
-187.58884124341108
 20
58.904407358320583
 11
263.98243521541224
 21
58.904407358320583
  0
LINE
  8
_0-1_
  6
CONTINUOUS
 62
    7
 10
263.98243521541224
 20
58.904407358320583
 11
263.98243521541224
 21
40.904407358321606
  0
LINE
  8
_0-1_
  6
CONTINUOUS
 62
    7
 10
-187.58884124341108
 20
40.904407358321606
 11
263.98243521541224
 21
40.904407358321606
  0
LINE
  8
_0-1_
  6
CONTINUOUS
 62
    7
 10
-187.58884124341108
 20
-51.095592641669754
 11
263.98243521541224
 21
-51.095592641669754
  0
LINE
  8
_0-1_
  6
CONTINUOUS
 62
    7
 10
263.98243521541224
 20
-51.095592641669754
 11
263.98243521541224
 21
-33.095592641670777
  0
LINE
  8
_0-1_
  6
CONTINUOUS
 62
    7
 10
-187.58884124341108
 20
-33.095592641670777
 11
263.98243521541224
 21
-33.095592641670777
  0
LINE
  8
_0-1_
  6
CONTINUOUS
 62
    7
 10
242.3559196734229
 20
78.904407358320725
 11
585.39160363308861
 21
78.904407358320725
  0
LINE
  8
_0-1_
  6
CONTINUOUS
 62
    7
 10
207.71490352204512
 20
58.904407358320583
 11
242.3559196734229
 21
78.904407358320725
  0
LINE
  8
_0-1_
  6
CONTINUOUS
 62
    7
 10
242.35591967342282
 20
-71.095592641669896
 11
585.39160363308861
 21
-71.095592641669896
  0
LINE
  8
_0-1_
  6
CONTINUOUS
 62
    7
 10
207.71490352204501
 20
-51.095592641669754
 11
242.35591967342282
 21
-71.095592641669896
  0
LINE
  8
_0-1_
  6
CONTINUOUS
 62
    7
 10
-109.99685051708184
 20
-64.024524829804506
 11
-109.99685051708184
 21
-51.095592641669754
  0
LINE
  8
_0-1_
  6
CONTINUOUS
 62
    7
 10
-109.99685051708184
 20
-64.024524829804506
 11
-102.92578270521633
 21
-71.095592641669896
  0
LINE
  8
_0-1_
  6
CONTINUOUS
 62
    7
 10
-57.067918328947336
 20
-71.095592641669896
 11
-102.92578270521633
 21
-71.095592641669896
  0
LINE
  8
_0-1_
  6
CONTINUOUS
 62
    7
 10
-49.996850517081839
 20
-64.024524829804506
 11
-49.996850517081839
 21
-52.688378971998162
  0
LINE
  8
_0-1_
  6
CONTINUOUS
 62
    7
 10
-57.067918328947336
 20
-71.095592641669896
 11
-49.996850517081839
 21
-64.024524829804506
  0
LINE
  8
_0-1_
  6
CONTINUOUS
 62
    7
 10
-119.99685051708181
 20
78.904407358320725
 11
-119.99685051708181
 21
58.904407358320583
  0
LINE
  8
_0-1_
  6
CONTINUOUS
 62
    7
 10
-119.99685051708181
 20
78.904407358320725
 11
-39.996850517081874
 21
78.904407358320725
  0
LINE
  8
_0-1_
  6
CONTINUOUS
 62
    7
 10
-39.996850517081874
 20
78.904407358320725
 11
-39.996850517081874
 21
58.904407358320583
  0
ENDBLK
  0
BLOCK
  2
-009-____
 70
   64
 10
0
 20
0
 30
0
  0
ARC
  8
_0-1_
  6
CONTINUOUS
 62
    7
 10
1.6104651162780215
 20
121.46394825233251
 40
6.2999999999999998
 50
197.50000000000054
 51
342.49999999999943
  0
LINE
  8
_0-1_
  6
CONTINUOUS
 62
    7
 10
-4.3979516734358981
 20
119.5695017154555
 11
-8.6842642019936989
 21
133.16394825233255
  0
LINE
  8
_0-1_
  6
CONTINUOUS
 62
    7
 10
-8.6842642019936989
 20
133.16394825233255
 11
-14.139534883722149
 21
133.16394825233255
  0
LINE
  8
_0-1_
  6
CONTINUOUS
 62
    7
 10
7.618881905991941
 20
119.5695017154555
 11
11.905194434549742
 21
133.16394825233255
  0
LINE
  8
_0-1_
  6
CONTINUOUS
 62
    7
 10
17.360465116278192
 20
133.16394825233255
 11
11.905194434549742
 21
133.16394825233255
  0
LINE
  8
_0-1_
  6
CONTINUOUS
 62
    7
 10
-9.0285912969028459
 20
106.95410613720512
 11
-14.139534883722149
 21
123.16394825233246
  0
ARC
  8
_0-1_
  6
CONTINUOUS
 62
    7
 10
1.6104651162780215
 20
110.30858773909635
 40
11.155360513236221
 50
197.50000000000063
 51
342.49999999999937
  0
LINE
  8
_0-1_
  6
CONTINUOUS
 62
    7
 10
12.249521529458889
 20
106.95410613720512
 11
17.360465116278192
 21
123.16394825233246
  0
LINE
  8
_0-1_
  6
CONTINUOUS
 62
    7
 10
-14.139534883722149
 20
65.107378235653854
 11
-9.0285912969028459
 21
106.95410613720512
  0
LINE
  8
_0-1_
  6
CONTINUOUS
 62
    7
 10
-14.139534883722149
 20
133.16394825233255
 11
-14.139534883722149
 21
123.16394825233246
  0
LINE
  8
_0-1_
  6
CONTINUOUS
 62
    7
 10
17.360465116278192
 20
65.107378235653854
 11
12.249521529458889
 21
106.95410613720512
  0
LINE
  8
_0-1_
  6
CONTINUOUS
 62
    7
 10
17.360465116278192
 20
123.16394825233246
 11
17.360465116278192
 21
133.16394825233255
  0
ARC
  8
_0-1_
  6
CONTINUOUS
 62
    7
 10
-13.389534883721979
 20
60.163948252332631
 40
5
 50
98.626926558680694
 51
180
  0
ARC
  8
_0-1_
  6
CONTINUOUS
 62
    7
 10
16.610465116278021
 20
60.163948252332631
 40
5
 50
0
 51
81.373073441319306
  0
ARC
  8
_0-1_
  6
CONTINUOUS
 62
    7
 10
1.6104651162780215
 20
-81.136051747667395
 40
6.2999999999999998
 50
17.50000000000054
 51
162.49999999999946
  0
LINE
  8
_0-1_
  6
CONTINUOUS
 62
    7
 10
-4.3979516734358981
 20
-79.241605210790382
 11
-8.6842642019936989
 21
-92.836051747667412
  0
LINE
  8
_0-1_
  6
CONTINUOUS
 62
    7
 10
-8.6842642019936989
 20
-92.836051747667412
 11
-14.139534883722149
 21
-92.836051747667412
  0
LINE
  8
_0-1_
  6
CONTINUOUS
 62
    7
 10
7.618881905991941
 20
-79.241605210790382
 11
11.905194434549742
 21
-92.836051747667412
  0
LINE
  8
_0-1_
  6
CONTINUOUS
 62
    7
 10
17.360465116278192
 20
-92.836051747667412
 11
11.905194434549742
 21
-92.836051747667412
  0
LINE
  8
_0-1_
  6
CONTINUOUS
 62
    7
 10
-9.0285912969028459
 20
-66.626209632539997
 11
-14.139534883722149
 21
-82.836051747667341
  0
ARC
  8
_0-1_
  6
CONTINUOUS
 62
    7
 10
1.6104651162780215
 20
-69.980691234431234
 40
11.155360513236221
 50
17.500000000000615
 51
162.49999999999937
  0
LINE
  8
_0-1_
  6
CONTINUOUS
 62
    7
 10
12.249521529458889
 20
-66.626209632539997
 11
17.360465116278192
 21
-82.836051747667341
  0
LINE
  8
_0-1_
  6
CONTINUOUS
 62
    7
 10
-14.139534883722149
 20
-24.779481730988735
 11
-9.0285912969028459
 21
-66.626209632539997
  0
LINE
  8
_0-1_
  6
CONTINUOUS
 62
    7
 10
-14.139534883722149
 20
-92.836051747667412
 11
-14.139534883722149
 21
-82.836051747667341
  0
LINE
  8
_0-1_
  6
CONTINUOUS
 62
    7
 10
17.360465116278192
 20
-24.779481730988735
 11
12.249521529458889
 21
-66.626209632539997
  0
LINE
  8
_0-1_
  6
CONTINUOUS
 62
    7
 10
17.360465116278192
 20
-82.836051747667341
 11
17.360465116278192
 21
-92.836051747667412
  0
ARC
  8
_0-1_
  6
CONTINUOUS
 62
    7
 10
-13.389534883721979
 20
-19.836051747667511
 40
5
 50
180
 51
261.37307344131932
  0
ARC
  8
_0-1_
  6
CONTINUOUS
 62
    7
 10
16.610465116278021
 20
-19.836051747667511
 40
5
 50
278.62692655868068
 51
0
  0
LINE
  8
_0-1_
  6
CONTINUOUS
 62
    7
 10
-14.139534883722149
 20
-82.836051747667341
 11
-14.139534883722149
 21
-92.836051747667412
  0
LINE
  8
_0-1_
  6
CONTINUOUS
 62
    7
 10
-18.389534883721694
 20
60.163948252332631
 11
-18.389534883721694
 21
-19.836051747667511
  0
LINE
  8
_0-1_
  6
CONTINUOUS
 62
    7
 10
21.610465116277737
 20
60.163948252332631
 11
21.610465116277737
 21
-19.836051747667511
  0
LINE
  8
_0-1_
  6
DASHED1
 62
    7
 10
-18.389534883721694
 20
-4.8360517476675113
 11
21.610465116277737
 21
-4.8360517476675113
  0
LINE
  8
_0-1_
  6
DASHED1
 62
    7
 10
-18.389534883721694
 20
45.163948252332631
 11
21.610465116277737
 21
45.163948252332631
  0
LINE
  8
_0-1_
  6
CONTINUOUS
 62
    7
 10
-14.139534883722149
 20
-92.836051747667412
 11
-8.6842642019936989
 21
-92.836051747667412
  0
LINE
  8
_0-1_
  6
CONTINUOUS
 62
    7
 10
11.905194434549742
 20
-92.836051747667412
 11
17.360465116278192
 21
-92.836051747667412
  0
POINT
  8
_0-1_
 62
    7
 10
1.6104651162780215
 20
20.16394825233256
  0
ENDBLK
  0
BLOCK
  2
-010-巻上__起伏____平面
 70
   64
 10
0
 20
0
 30
0
  0
LINE
  8
_1-1_
  6
CONTINUOUS
 62
    7
 10
3142.55829593934
 20
1482.4543146867265
 11
3142.55829593934
 21
1386.4543146867268
  0
LINE
  8
_1-1_
  6
CONTINUOUS
 62
    7
 10
3097.7796159294908
 20
1386.4543146867268
 11
3097.7796159294908
 21
1314.4543146867268
  0
LINE
  8
_1-1_
  6
CONTINUOUS
 62
    7
 10
-2917.4417040606604
 20
1482.4543146867265
 11
-2917.4417040606604
 21
1386.4543146867268
  0
LINE
  8
_1-1_
  6
CONTINUOUS
 62
    7
 10
-907.44170406066019
 20
2075.2627198329951
 11
-907.44170406066019
 21
1484.0992750689916
  0
LINE
  8
_1-1_
  6
CONTINUOUS
 62
    7
 10
-835.44170406066019
 20
2075.2627198329951
 11
-835.44170406066019
 21
1484.0992750689916
  0
LINE
  8
_1-1_
  6
CONTINUOUS
 62
    7
 10
-835.44170406066019
 20
2075.2627198329951
 11
-907.44170406066019
 21
2075.2627198329951
  0
LINE
  8
_1-1_
  6
CONTINUOUS
 62
    7
 10
1060.55829593934
 20
2075.2627198329951
 11
1060.55829593934
 21
1484.0992750689916
  0
LINE
  8
_1-1_
  6
CONTINUOUS
 62
    7
 10
1060.55829593934
 20
2075.2627198329951
 11
1132.5582959393398
 21
2075.2627198329951
  0
LINE
  8
_1-1_
  6
CONTINUOUS
 62
    7
 10
-2745.792187080358
 20
1498.1738914164212
 11
-2745.792187080358
 21
1638.9274444337027
  0
LINE
  8
_1-1_
  6
CONTINUOUS
 62
    7
 10
2887.9883525182572
 20
1482.4543146867265
 11
2887.9883525182572
 21
1638.9274444337027
  0
LINE
  8
_1-1_
  6
CONTINUOUS
 62
    7
 10
1132.5582959393398
 20
2075.2627198329951
 11
1132.5582959393398
 21
1922.2926346140093
  0
LINE
  8
_1-1_
  6
CONTINUOUS
 62
    7
 10
1132.5582959393398
 20
1922.2926346140093
 11
1132.5582959393398
 21
1484.0992750689916
  0
LINE
  8
_1-1_
  6
CONTINUOUS
 62
    7
 10
3270.6171704423864
 20
336.06225316138904
 11
3304.5582959393405
 21
302.12112766443482
  0
LINE
  8
_1-1_
  6
CONTINUOUS
 62
    7
 10
3304.5582959393405
 20
-409.9966213416559
 11
3304.5582959393405
 21
302.12112766443482
  0
LINE
  8
_1-1_
  6
CONTINUOUS
 62
    7
 10
3304.5582959393405
 20
-409.9966213416559
 11
3270.6171704423864
 21
-443.93774683861096
  0
LINE
  8
_1-1_
  6
CONTINUOUS
 62
    7
 10
3270.6171704423864
 20
336.06225316138904
 11
3022.558277939339
 21
336.06225316138904
  0
LINE
  8
_1-1_
  6
CONTINUOUS
 62
    7
 10
3022.558277939339
 20
-443.93774683861096
 11
3022.558277939339
 21
336.06225316138904
  0
LINE
  8
_1-1_
  6
CONTINUOUS
 62
    7
 10
3270.6171704423864
 20
-443.93774683861096
 11
3022.558277939339
 21
-443.93774683861096
  0
LINE
  8
_1-1_
  6
CONTINUOUS
 62
    7
 10
2872.0480790049069
 20
192.06225316138912
 11
3022.558277939339
 21
192.06225316138912
  0
LINE
  8
_1-1_
  6
CONTINUOUS
 62
    7
 10
2872.0480790049069
 20
-299.93774683861102
 11
3022.558277939339
 21
-299.93774683861102
  0
LINE
  8
_1-1_
  6
CONTINUOUS
 62
    7
 10
-3007.4417040606604
 20
182.12112766443482
 11
-2973.5005785637059
 21
216.06225316138904
  0
LINE
  8
_1-1_
  6
CONTINUOUS
 62
    7
 10
-3007.4417040606604
 20
-289.99662134165675
 11
-2973.5005785637059
 21
-323.93774683861096
  0
LINE
  8
_1-1_
  6
CONTINUOUS
 62
    7
 10
-2973.5005785637059
 20
216.06225316138904
 11
-2745.792187080358
 21
216.06225316138904
  0
LINE
  8
_1-1_
  6
CONTINUOUS
 62
    7
 10
-2745.792187080358
 20
216.06225316138904
 11
-2745.792187080358
 21
-323.93774683861096
  0
LINE
  8
_1-1_
  6
CONTINUOUS
 62
    7
 10
-2973.5005785637059
 20
-323.93774683861096
 11
-2745.792187080358
 21
-323.93774683861096
  0
LINE
  8
_1-1_
  6
CONTINUOUS
 62
    7
 10
-2745.792187080358
 20
132.06225316138912
 11
-2662.0848325676307
 21
132.06225316138912
  0
LINE
  8
_1-1_
  6
CONTINUOUS
 62
    7
 10
-2745.792187080358
 20
-239.93774683861105
 11
-2662.0848325676307
 21
-239.93774683861105
  0
LINE
  8
_1-1_
  6
CONTINUOUS
 62
    7
 10
-3007.4417040606604
 20
-289.99662134165675
 11
-3007.4417040606604
 21
-270.17764273651312
  0
LINE
  8
_1-1_
  6
CONTINUOUS
 62
    7
 10
-3007.4417040606604
 20
-270.17764273651312
 11
-3007.4417040606604
 21
182.12112766443482
  0
LINE
  8
_1-1_
  6
CONTINUOUS
 62
    7
 10
3134.5783819491871
 20
-1187.5456853132732
 11
3134.5783819491871
 21
-443.93774683861096
  0
LINE
  8
_1-1_
  6
CONTINUOUS
 62
    7
 10
3134.5783819491871
 20
336.06225316138904
 11
3134.5783819491871
 21
1314.4543146867268
  0
LINE
  8
_1-1_
  6
CONTINUOUS
 62
    7
 10
1410.538209929493
 20
132.73140250207447
 11
1410.538209929493
 21
1385.572034274993
  0
ARC
  8
_1-1_
  6
CONTINUOUS
 62
    7
 10
-1279.4417040606604
 20
996.45431468672598
 40
36
 50
0
 51
180
  0
ARC
  8
_1-1_
  6
CONTINUOUS
 62
    7
 10
-415.44170406066002
 20
996.45431468672598
 40
36
 50
0
 51
180
  0
ARC
  8
_1-1_
  6
CONTINUOUS
 62
    7
 10
1264.5582959393396
 20
996.45431468672598
 40
36
 50
0
 51
180
  0
ARC
  8
_1-1_
  6
CONTINUOUS
 62
    7
 10
400.55829593933925
 20
996.45431468672598
 40
36
 50
0.0000000000000063
 51
180
  0
LINE
  8
_1-1_
  6
CONTINUOUS
 62
    7
 10
-151.4417040606601
 20
126.45431468672683
 11
-43.441704060660271
 21
126.45431468672683
  0
ARC
  8
_1-1_
  6
CONTINUOUS
 62
    7
 10
-151.4417040606601
 20
66.454314686726832
 40
60
 50
90
 51
180
  0
LINE
  8
_1-1_
  6
CONTINUOUS
 62
    7
 10
-211.4417040606601
 20
-617.54568531327345
 11
-211.4417040606601
 21
66.454314686726832
  0
ARC
  8
_1-1_
  6
CONTINUOUS
 62
    7
 10
-151.4417040606601
 20
-617.54568531327345
 40
60
 50
180
 51
270
  0
ARC
  8
_1-1_
  6
CONTINUOUS
 62
    7
 10
136.55829593933973
 20
54.454314686726661
 40
60
 50
0
 51
90
  0
ARC
  8
_1-1_
  6
CONTINUOUS
 62
    7
 10
136.55829593933973
 20
-605.54568531327334
 40
60
 50
270
 51
0
  0
LINE
  8
_1-1_
  6
CONTINUOUS
 62
    7
 10
136.55829593933973
 20
114.45431468672666
 11
28.558295939339899
 21
114.45431468672666
  0
LINE
  8
_1-1_
  6
CONTINUOUS
 62
    7
 10
136.55829593933973
 20
-665.54568531327334
 11
28.558295939339899
 21
-665.54568531327334
  0
LINE
  8
_1-1_
  6
CONTINUOUS
 62
    7
 10
364.55829593933959
 20
792.45431468672655
 11
334.55829593933959
 21
792.45431468672655
  0
LINE
  8
_1-1_
  6
CONTINUOUS
 62
    7
 10
196.55829593933973
 20
54.454314686726661
 11
331.20430810394396
 21
336.58878745852678
  0
LINE
  8
_1-1_
  6
CONTINUOUS
 62
    7
 10
196.55829593933973
 20
290.79380951961423
 11
334.55829593933959
 21
792.45431468672655
  0
LINE
  8
_1-1_
  6
CONTINUOUS
 62
    7
 10
364.55829593933959
 20
336.58878745852678
 11
334.55829593933959
 21
336.58878745852678
  0
LINE
  8
_1-1_
  6
CONTINUOUS
 62
    7
 10
364.55829593933998
 20
-887.680158085073
 11
334.55829593933998
 21
-887.680158085073
  0
LINE
  8
_1-1_
  6
CONTINUOUS
 62
    7
 10
196.55829593933973
 20
-841.88518014615875
 11
196.55829593933973
 21
290.79380951961423
  0
LINE
  8
_1-1_
  6
CONTINUOUS
 62
    7
 10
-379.44170406065996
 20
792.45431468672564
 11
-349.44170406065996
 21
792.45431468672564
  0
LINE
  8
_1-1_
  6
CONTINUOUS
 62
    7
 10
-211.4417040606601
 20
54.454314686725809
 11
-346.08771622526433
 21
336.58878745852587
  0
LINE
  8
_1-1_
  6
CONTINUOUS
 62
    7
 10
-211.4417040606601
 20
290.79380951961343
 11
-349.44170406065996
 21
792.45431468672564
  0
LINE
  8
_1-1_
  6
CONTINUOUS
 62
    7
 10
-379.44170406065996
 20
336.58878745852587
 11
-349.44170406065996
 21
336.58878745852587
  0
LINE
  8
_1-1_
  6
CONTINUOUS
 62
    7
 10
-211.44170406066053
 20
-605.54568531327413
 11
-346.08771622526478
 21
-887.6801580850738
  0
LINE
  8
_1-1_
  6
CONTINUOUS
 62
    7
 10
-379.44170406066036
 20
-887.6801580850738
 11
-349.44170406066036
 21
-887.6801580850738
  0
LINE
  8
_1-1_
  6
CONTINUOUS
 62
    7
 10
-211.4417040606601
 20
-841.88518014615966
 11
-211.4417040606601
 21
290.79380951961343
  0
ARC
  8
_1-1_
  6
CONTINUOUS
 62
    7
 10
-1213.4417040606602
 20
596.09902711702148
 40
30
 50
0
 51
180
  0
ARC
  8
_1-1_
  6
CONTINUOUS
 62
    7
 10
-1153.4417040606602
 20
596.09902711702148
 40
30
 50
0
 51
180
  0
ARC
  8
_1-1_
  6
CONTINUOUS
 62
    7
 10
-1093.4417040606602
 20
596.09902711702148
 40
30
 50
0
 51
180
  0
ARC
  8
_1-1_
  6
CONTINUOUS
 62
    7
 10
-1033.4417040606602
 20
596.09902711702148
 40
30
 50
0
 51
180
  0
ARC
  8
_1-1_
  6
CONTINUOUS
 62
    7
 10
-973.4417040606603
 20
596.09902711702148
 40
30
 50
0
 51
180
  0
ARC
  8
_1-1_
  6
CONTINUOUS
 62
    7
 10
-913.4417040606603
 20
596.09902711702148
 40
30
 50
0
 51
180
  0
ARC
  8
_1-1_
  6
CONTINUOUS
 62
    7
 10
-853.4417040606603
 20
596.09902711702148
 40
30
 50
0
 51
180
  0
ARC
  8
_1-1_
  6
CONTINUOUS
 62
    7
 10
-793.4417040606603
 20
596.09902711702148
 40
30
 50
0
 51
180
  0
ARC
  8
_1-1_
  6
CONTINUOUS
 62
    7
 10
-733.4417040606603
 20
596.09902711702148
 40
30
 50
0
 51
180
  0
ARC
  8
_1-1_
  6
CONTINUOUS
 62
    7
 10
-673.4417040606603
 20
596.09902711702148
 40
30
 50
0
 51
180
  0
ARC
  8
_1-1_
  6
CONTINUOUS
 62
    7
 10
-613.4417040606603
 20
596.09902711702148
 40
30
 50
0
 51
180
  0
ARC
  8
_1-1_
  6
CONTINUOUS
 62
    7
 10
-553.4417040606603
 20
596.09902711702148
 40
30
 50
0
 51
180
  0
ARC
  8
_1-1_
  6
CONTINUOUS
 62
    7
 10
-493.4417040606603
 20
596.09902711702148
 40
30
 50
0
 51
180
  0
ARC
  8
_1-1_
  6
CONTINUOUS
 62
    7
 10
1198.5582959393398
 20
749.97588198940639
 40
30
 50
0
 51
180
  0
ARC
  8
_1-1_
  6
CONTINUOUS
 62
    7
 10
1138.5582959393398
 20
749.97588198940639
 40
30
 50
0
 51
180
  0
ARC
  8
_1-1_
  6
CONTINUOUS
 62
    7
 10
1078.5582959393398
 20
749.97588198940639
 40
30
 50
0
 51
180
  0
ARC
  8
_1-1_
  6
CONTINUOUS
 62
    7
 10
1018.5582959393399
 20
749.97588198940639
 40
30
 50
0
 51
180
  0
ARC
  8
_1-1_
  6
CONTINUOUS
 62
    7
 10
958.55829593933993
 20
749.97588198940639
 40
30
 50
0
 51
180
  0
ARC
  8
_1-1_
  6
CONTINUOUS
 62
    7
 10
898.55829593933993
 20
749.97588198940639
 40
30
 50
0
 51
180
  0
ARC
  8
_1-1_
  6
CONTINUOUS
 62
    7
 10
838.55829593933993
 20
749.97588198940639
 40
30
 50
0
 51
180
  0
ARC
  8
_1-1_
  6
CONTINUOUS
 62
    7
 10
778.55829593933993
 20
749.97588198940639
 40
30
 50
0
 51
180
  0
ARC
  8
_1-1_
  6
CONTINUOUS
 62
    7
 10
718.55829593933993
 20
749.97588198940639
 40
30
 50
0
 51
180
  0
ARC
  8
_1-1_
  6
CONTINUOUS
 62
    7
 10
658.55829593933993
 20
749.97588198940639
 40
30
 50
0
 51
180
  0
ARC
  8
_1-1_
  6
CONTINUOUS
 62
    7
 10
598.55829593933993
 20
749.97588198940639
 40
30
 50
0
 51
180
  0
ARC
  8
_1-1_
  6
CONTINUOUS
 62
    7
 10
538.55829593933993
 20
749.97588198940639
 40
30
 50
0
 51
180
  0
ARC
  8
_1-1_
  6
CONTINUOUS
 62
    7
 10
478.55829593933993
 20
749.97588198940639
 40
30
 50
0
 51
180
  0
LINE
  8
_1-1_
  6
CONTINUOUS
 62
    7
 10
28.558295939339899
 20
924.45431468672666
 11
28.558295939339899
 21
-875.54568531327334
  0
LINE
  8
_1-1_
  6
CONTINUOUS
 62
    7
 10
-43.441704060660271
 20
924.45431468672666
 11
28.558295939339899
 21
924.45431468672666
  0
LINE
  8
_1-1_
  6
CONTINUOUS
 62
    7
 10
-1243.4417040606602
 20
996.45431468672598
 11
-1003.4417040606603
 21
996.45431468672598
  0
LINE
  8
_1-1_
  6
CONTINUOUS
 62
    7
 10
-1243.4417040606602
 20
756.45431468672598
 11
-1003.4417040606603
 21
756.45431468672598
  0
LINE
  8
_1-1_
  6
CONTINUOUS
 62
    7
 10
-1003.4417040606603
 20
996.45431468672598
 11
-1003.4417040606603
 21
756.45431468672598
  0
LINE
  8
_1-1_
  6
CONTINUOUS
 62
    7
 10
-451.44170406066007
 20
996.45431468672598
 11
-691.44170406066007
 21
996.45431468672598
  0
LINE
  8
_1-1_
  6
CONTINUOUS
 62
    7
 10
-451.44170406066007
 20
756.45431468672598
 11
-691.44170406066007
 21
756.45431468672598
  0
LINE
  8
_1-1_
  6
CONTINUOUS
 62
    7
 10
-691.44170406066007
 20
996.45431468672598
 11
-691.44170406066007
 21
756.45431468672598
  0
LINE
  8
_1-1_
  6
CONTINUOUS
 62
    7
 10
1228.5582959393398
 20
996.45431468672598
 11
988.55829593933993
 21
996.45431468672598
  0
LINE
  8
_1-1_
  6
CONTINUOUS
 62
    7
 10
1228.5582959393398
 20
756.45431468672598
 11
988.55829593933993
 21
756.45431468672598
  0
LINE
  8
_1-1_
  6
CONTINUOUS
 62
    7
 10
988.55829593933993
 20
996.45431468672598
 11
988.55829593933993
 21
756.45431468672598
  0
LINE
  8
_1-1_
  6
CONTINUOUS
 62
    7
 10
436.5582959393397
 20
996.45431468672598
 11
676.5582959393397
 21
996.45431468672598
  0
LINE
  8
_1-1_
  6
CONTINUOUS
 62
    7
 10
436.5582959393397
 20
756.45431468672598
 11
676.5582959393397
 21
756.45431468672598
  0
LINE
  8
_1-1_
  6
CONTINUOUS
 62
    7
 10
676.5582959393397
 20
996.45431468672598
 11
676.5582959393397
 21
756.45431468672598
  0
LINE
  8
_1-1_
  6
CONTINUOUS
 62
    7
 10
-2827.4417040606604
 20
1385.572034274993
 11
-2827.4417040606604
 21
1075.9156955455687
  0
LINE
  8
_1-1_
  6
CONTINUOUS
 62
    7
 10
-1387.4417040606602
 20
1385.572034274993
 11
-1387.4417040606602
 21
1075.9156955455687
  0
LINE
  8
_1-1_
  6
CONTINUOUS
 62
    7
 10
-2797.4417040606604
 20
1075.9156955455687
 11
-2797.4417040606604
 21
216.06225316138904
  0
LINE
  8
_1-1_
  6
CONTINUOUS
 62
    7
 10
-2797.4417040606604
 20
-323.93774683861096
 11
-2797.4417040606604
 21
-986.1256969782678
  0
LINE
  8
_1-1_
  6
CONTINUOUS
 62
    7
 10
-1417.4417040606602
 20
1075.9156955455687
 11
-1417.4417040606602
 21
182.13322022585743
  0
LINE
  8
_1-0_
  6
CENTER2
 62
    4
 10
1370.894077631795
 20
-275.54568531327334
 11
-3007.44170406066
 21
-275.54568531327334
  0
LINE
  8
_1-0_
  6
CENTER2
 62
    4
 10
3304.5582959393405
 20
-275.54568531327334
 11
1370.894077631795
 21
-275.54568531327334
  0
LINE
  8
_1-0_
  6
CENTER2
 62
    4
 10
112.55829593933981
 20
2054.1507953118603
 11
112.55829593933981
 21
-1583.5456853132732
  0
LINE
  8
_1-1_
  6
CONTINUOUS
 62
    7
 10
-2745.792187080358
 20
1638.9274444337027
 11
-2467.4417040606595
 21
1638.9274444337027
  0
LINE
  8
_1-1_
  6
CONTINUOUS
 62
    7
 10
-907.44170406066019
 20
1922.2926346140093
 11
-1747.4417040606595
 21
1922.2926346140093
  0
LINE
  8
_1-1_
  6
CONTINUOUS
 62
    7
 10
-2745.792187080358
 20
1638.9274444337027
 11
-2467.44170406066
 21
1917.2779274534012
  0
LINE
  8
_1-1_
  6
CONTINUOUS
 62
    7
 10
-1747.4417040606593
 20
1638.9274444337027
 11
1972.5582959393389
 21
1638.9274444337027
  0
LINE
  8
_1-1_
  6
CONTINUOUS
 62
    7
 10
2692.5582959393391
 20
1638.9274444337027
 11
2887.9883525182572
 21
1638.9274444337027
  0
LINE
  8
_1-1_
  6
CONTINUOUS
 62
    7
 10
1972.5582959393389
 20
1922.2926346140093
 11
1142.3593872243146
 21
1922.2926346140093
  0
LINE
  8
_1-1_
  6
CONTINUOUS
 62
    7
 10
2887.9883525182572
 20
1638.9274444337027
 11
2692.5582959393387
 21
1834.3575010126215
  0
LINE
  8
_1-1_
  6
CONTINUOUS
 62
    7
 10
-2467.44170406066
 20
1482.4543146867265
 11
-2917.4417040606604
 21
1482.4543146867265
  0
LINE
  8
_1-1_
  6
CONTINUOUS
 62
    7
 10
-2467.44170406066
 20
1386.4543146867268
 11
-2917.4417040606604
 21
1386.4543146867268
  0
LINE
  8
_1-1_
  6
CONTINUOUS
 62
    7
 10
-2835.3495831000605
 20
1075.9156955455687
 11
-2467.4417040606595
 21
1075.9156955455687
  0
LINE
  8
_1-1_
  6
CONTINUOUS
 62
    7
 10
-1747.4417040606595
 20
1075.9156955455687
 11
-1387.4417040606602
 21
1075.9156955455687
  0
LINE
  8
_1-1_
  6
CONTINUOUS
 62
    7
 10
-2797.4417040606604
 20
998.50037927270876
 11
-2467.4417040606595
 21
998.50037927270876
  0
LINE
  8
_1-1_
  6
CONTINUOUS
 62
    7
 10
-1747.4417040606595
 20
998.50037927270876
 11
-1424.8323501000591
 21
998.50037927270876
  0
ARC
  8
_1-1_
  6
CONTINUOUS
 62
    7
 10
-2107.4417040606604
 20
-53.937746838610963
 40
720
 50
119.99999999999991
 51
157.97568716295785
  0
ARC
  8
_1-1_
  6
CONTINUOUS
 62
    7
 10
-2107.4417040606604
 20
-53.937746838610963
 40
585
 50
127.97987244485188
 51
232.02012755514809
  0
ARC
  8
_1-1_
  6
CONTINUOUS
 62
    7
 10
-2107.4417040606604
 20
-53.937746838610963
 40
585
 50
307.97987244485211
 51
52.02012755514788
  0
ARC
  8
_1-1_
  6
CONTINUOUS
 62
    7
 10
-2107.4417040606604
 20
-53.937746838610963
 40
720
 50
202.02431283704215
 51
240.00000000000009
  0
ARC
  8
_1-1_
  6
CONTINUOUS
 62
    7
 10
-2107.4417040606604
 20
-53.937746838610963
 40
720
 50
300.00000000000011
 51
59.999999999999908
  0
LINE
  8
_1-1_
  6
CONTINUOUS
 62
    7
 10
-2797.4417040606604
 20
-986.1256969782678
 11
-2467.4417040606595
 21
-986.1256969782678
  0
LINE
  8
_1-1_
  6
CONTINUOUS
 62
    7
 10
-1417.4417040606602
 20
-310.50298374413757
 11
-1417.4417040606602
 21
-905.83616094220383
  0
LINE
  8
_1-1_
  6
CONTINUOUS
 62
    7
 10
-211.4417040606601
 20
-841.88518014615966
 11
-229.03375138938938
 21
-905.83616094220372
  0
LINE
  8
_1-1_
  6
CONTINUOUS
 62
    7
 10
-379.44170406065996
 20
996.45431468672598
 11
-379.44170406065996
 21
-905.83616094220372
  0
LINE
  8
_1-1_
  6
CONTINUOUS
 62
    7
 10
-451.44170406066007
 20
996.45431468672598
 11
-451.44170406066007
 21
-905.83616094220372
  0
LINE
  8
_1-1_
  6
CONTINUOUS
 62
    7
 10
-463.4417040606603
 20
596.09902711702148
 11
-463.4417040606603
 21
-905.83616094220372
  0
LINE
  8
_1-1_
  6
CONTINUOUS
 62
    7
 10
-523.4417040606603
 20
596.09902711702148
 11
-523.4417040606603
 21
-905.83616094220372
  0
LINE
  8
_1-1_
  6
CONTINUOUS
 62
    7
 10
-583.4417040606603
 20
596.09902711702148
 11
-583.4417040606603
 21
-905.83616094220372
  0
LINE
  8
_1-1_
  6
CONTINUOUS
 62
    7
 10
-643.4417040606603
 20
596.09902711702148
 11
-643.4417040606603
 21
-905.83616094220372
  0
LINE
  8
_1-1_
  6
CONTINUOUS
 62
    7
 10
-703.4417040606603
 20
596.09902711702148
 11
-703.4417040606603
 21
-905.83616094220372
  0
LINE
  8
_1-1_
  6
CONTINUOUS
 62
    7
 10
-763.4417040606603
 20
596.09902711702148
 11
-763.4417040606603
 21
-905.83616094220372
  0
LINE
  8
_1-1_
  6
CONTINUOUS
 62
    7
 10
-883.4417040606603
 20
596.09902711702148
 11
-883.4417040606603
 21
-905.83616094220372
  0
LINE
  8
_1-1_
  6
CONTINUOUS
 62
    7
 10
-823.4417040606603
 20
596.09902711702148
 11
-823.4417040606603
 21
-905.83616094220372
  0
LINE
  8
_1-1_
  6
CONTINUOUS
 62
    7
 10
-1003.4417040606603
 20
596.09902711702148
 11
-1003.4417040606603
 21
-905.83616094220372
  0
LINE
  8
_1-1_
  6
CONTINUOUS
 62
    7
 10
-1063.4417040606602
 20
596.09902711702148
 11
-1063.4417040606602
 21
-905.83616094220372
  0
LINE
  8
_1-1_
  6
CONTINUOUS
 62
    7
 10
-1123.4417040606602
 20
596.09902711702148
 11
-1123.4417040606602
 21
-905.83616094220372
  0
LINE
  8
_1-1_
  6
CONTINUOUS
 62
    7
 10
-1183.4417040606602
 20
596.09902711702148
 11
-1183.4417040606602
 21
-905.83616094220372
  0
LINE
  8
_1-1_
  6
CONTINUOUS
 62
    7
 10
-1243.4417040606602
 20
996.45431468672598
 11
-1243.4417040606602
 21
-905.83616094220372
  0
LINE
  8
_1-1_
  6
CONTINUOUS
 62
    7
 10
-1315.4417040606602
 20
996.45431468672598
 11
-1315.4417040606602
 21
-905.83616094220372
  0
LINE
  8
_1-1_
  6
CONTINUOUS
 62
    7
 10
1300.5582959393391
 20
996.45431468672598
 11
1300.5582959393391
 21
-905.83616094220372
  0
LINE
  8
_1-1_
  6
CONTINUOUS
 62
    7
 10
1228.5582959393398
 20
996.45431468672598
 11
1228.5582959393398
 21
-905.83616094220372
  0
LINE
  8
_1-1_
  6
CONTINUOUS
 62
    7
 10
1107.5067928802412
 20
742.36441731014565
 11
1107.5067928802412
 21
-905.83616094220372
  0
LINE
  8
_1-1_
  6
CONTINUOUS
 62
    7
 10
1047.5067928802412
 20
742.36441731014565
 11
1047.5067928802412
 21
-905.83616094220372
  0
LINE
  8
_1-1_
  6
CONTINUOUS
 62
    7
 10
987.50679288024116
 20
742.36441731014565
 11
987.50679288024116
 21
-905.83616094220372
  0
LINE
  8
_1-1_
  6
CONTINUOUS
 62
    7
 10
927.50679288024116
 20
742.36441731014565
 11
927.50679288024116
 21
-905.83616094220372
  0
LINE
  8
_1-1_
  6
CONTINUOUS
 62
    7
 10
867.50679288024116
 20
742.36441731014565
 11
867.50679288024116
 21
-905.83616094220372
  0
LINE
  8
_1-1_
  6
CONTINUOUS
 62
    7
 10
807.50679288024116
 20
742.36441731014565
 11
807.50679288024116
 21
-905.83616094220372
  0
LINE
  8
_1-1_
  6
CONTINUOUS
 62
    7
 10
747.50679288024116
 20
742.36441731014565
 11
747.50679288024116
 21
-905.83616094220372
  0
LINE
  8
_1-1_
  6
CONTINUOUS
 62
    7
 10
687.50679288024116
 20
742.36441731014565
 11
687.50679288024116
 21
-905.83616094220372
  0
LINE
  8
_1-1_
  6
CONTINUOUS
 62
    7
 10
567.50679288024116
 20
742.36441731014565
 11
567.50679288024116
 21
-905.83616094220372
  0
LINE
  8
_1-1_
  6
CONTINUOUS
 62
    7
 10
507.50679288024116
 20
742.36441731014565
 11
507.50679288024116
 21
-905.83616094220372
  0
LINE
  8
_1-1_
  6
CONTINUOUS
 62
    7
 10
436.5582959393397
 20
996.45431468672598
 11
436.5582959393397
 21
-905.83616094220372
  0
LINE
  8
_1-1_
  6
CONTINUOUS
 62
    7
 10
364.55829593933959
 20
996.45431468672598
 11
364.55829593933959
 21
-887.680158085073
  0
LINE
  8
_1-1_
  6
CONTINUOUS
 62
    7
 10
196.55829593933973
 20
-841.88518014615875
 11
214.15034326806924
 21
-905.83616094220372
  0
LINE
  8
_1-1_
  6
CONTINUOUS
 62
    7
 10
-43.441704060660271
 20
924.45431468672666
 11
-43.441704060660271
 21
-199.04057018890157
  0
LINE
  8
_1-1_
  6
CONTINUOUS
 62
    7
 10
-943.4417040606603
 20
596.09902711702148
 11
-943.4417040606603
 21
-199.04057018890157
  0
LINE
  8
_1-1_
  6
CONTINUOUS
 62
    7
 10
1167.5067928802412
 20
742.36441731014565
 11
1167.5067928802412
 21
-199.04057018890146
  0
LINE
  8
_1-1_
  6
CONTINUOUS
 62
    7
 10
1410.538209929493
 20
-905.83616094220372
 11
1410.538209929493
 21
-270.3192120901291
  0
LINE
  8
_1-1_
  6
CONTINUOUS
 62
    7
 10
3134.5783819491871
 20
-1187.5456853132732
 11
2692.5582959393391
 21
-1187.5456853132732
  0
ARC
  8
_1-1_
  6
CONTINUOUS
 62
    7
 10
2272.55829593934
 20
-53.937746838610963
 40
882
 50
298.43689014885524
 51
333.84007395097939
  0
ARC
  8
_1-1_
  6
CONTINUOUS
 62
    7
 10
2272.55829593934
 20
-53.937746838610963
 40
648
 50
310.40212525658319
 51
49.597874743416831
  0
ARC
  8
_1-1_
  6
CONTINUOUS
 62
    7
 10
2272.55829593934
 20
-53.937746838610963
 40
648
 50
117.57846797812327
 51
242.42153202187674
  0
ARC
  8
_1-1_
  6
CONTINUOUS
 62
    7
 10
2272.55829593934
 20
-53.937746838610963
 40
882
 50
26.242856749331853
 51
61.563109851144731
  0
ARC
  8
_1-1_
  6
CONTINUOUS
 62
    7
 10
2272.55829593934
 20
-53.937746838610963
 40
882
 50
109.88516345460791
 51
250.11483654539211
  0
LINE
  8
_1-1_
  6
CONTINUOUS
 62
    7
 10
3134.5783819491871
 20
1314.4543146867268
 11
2692.5582959393391
 21
1314.4543146867268
  0
LINE
  8
_1-1_
  6
CONTINUOUS
 62
    7
 10
1972.5582959393389
 20
1314.4543146867268
 11
1410.538209929493
 21
1314.4543146867268
  0
LINE
  8
_1-1_
  6
CONTINUOUS
 62
    7
 10
3142.55829593934
 20
1386.4543146867268
 11
2692.5582959393391
 21
1386.4543146867268
  0
LINE
  8
_1-1_
  6
CONTINUOUS
 62
    7
 10
1972.5582959393389
 20
1386.4543146867268
 11
-1747.4417040606597
 21
1386.4543146867268
  0
LINE
  8
_1-1_
  6
CONTINUOUS
 62
    7
 10
3142.55829593934
 20
1482.4543146867265
 11
2692.5582959393387
 21
1482.4543146867265
  0
LINE
  8
_1-1_
  6
CONTINUOUS
 62
    7
 10
1972.5582959393389
 20
1482.4543146867265
 11
-1747.4417040606597
 21
1482.4543146867265
  0
LINE
  8
_1-1_
  6
CONTINUOUS
 62
    7
 10
627.50679288024116
 20
742.36441731014565
 11
627.50679288024116
 21
-199.04057018890285
  0
LINE
  8
_1-1_
  6
CONTINUOUS
 62
    7
 10
292.55829593932447
 20
-806.7021024300102
 11
331.20430810394441
 21
-887.680158085073
  0
LINE
  8
_1-1_
  6
CONTINUOUS
 62
    7
 10
196.55829593934016
 20
-605.54568531327334
 11
238.55829593932754
 21
-693.55161780183357
  0
LINE
  8
_1-1_
  6
CONTINUOUS
 62
    7
 10
-151.4417040606601
 20
-677.54568531327345
 11
-67.441704060644796
 21
-677.54568531327345
  0
LINE
  8
_1-1_
  6
CONTINUOUS
 62
    7
 10
28.558295939339899
 20
-875.54568531327334
 11
-13.441704060647908
 21
-875.54568531327334
  0
ENDBLK
  0
BLOCK
  2
-011-旋回____平面
 70
   64
 10
0
 20
0
 30
0
  0
CIRCLE
  8
_0-1_
  6
CONTINUOUS
 62
    7
 10
-229.65435853831494
 20
-0.0000000000004263
 40
430
  0
POINT
  8
_0-1_
 62
    7
 10
-229.65435853831494
 20
-0.0000000000004263
  0
LINE
  8
_0-1_
  6
CONTINUOUS
 62
    7
 10
74.177775147509664
 20
429.99999999999943
 11
74.177775147509664
 21
309.99999999999943
  0
LINE
  8
_0-1_
  6
CONTINUOUS
 62
    7
 10
74.177775147509664
 20
-430.00000000000028
 11
74.177775147509664
 21
-310.00000000000028
  0
LINE
  8
_0-1_
  6
CONTINUOUS
 62
    7
 10
74.177775147509664
 20
309.99999999999943
 11
1128.3940540665067
 21
309.99999999999943
  0
LINE
  8
_0-1_
  6
CONTINUOUS
 62
    7
 10
74.177775147509664
 20
-310.00000000000028
 11
1128.3940540665067
 21
-310.00000000000028
  0
LINE
  8
_0-1_
  6
CONTINUOUS
 62
    7
 10
1285.3456414616851
 20
193.01124000913603
 11
1281.8101075557522
 21
196.54677391506894
  0
LINE
  8
_0-1_
  6
CONTINUOUS
 62
    7
 10
1258.8811753676175
 20
196.54677391506894
 11
1281.8101075557522
 21
196.54677391506894
  0
LINE
  8
_0-1_
  6
CONTINUOUS
 62
    7
 10
1258.8811753676175
 20
196.54677391506894
 11
1255.3456414616851
 21
193.01124000913603
  0
LINE
  8
_0-1_
  6
CONTINUOUS
 62
    7
 10
1285.3456414616851
 20
193.01124000913603
 11
1285.3456414616851
 21
181.54677391506894
  0
LINE
  8
_0-1_
  6
CONTINUOUS
 62
    7
 10
1255.3456414616851
 20
193.01124000913603
 11
1255.3456414616851
 21
181.54677391506894
  0
LINE
  8
_0-1_
  6
CONTINUOUS
 62
    7
 10
1290.3456414616849
 20
-190.54677391506971
 11
1250.3456414616853
 21
-190.54677391506971
  0
LINE
  8
_0-1_
  6
CONTINUOUS
 62
    7
 10
1290.3456414616849
 20
-181.54677391506979
 11
1290.3456414616849
 21
-190.54677391506971
  0
LINE
  8
_0-1_
  6
CONTINUOUS
 62
    7
 10
1250.3456414616853
 20
-181.54677391506979
 11
1250.3456414616853
 21
-190.54677391506971
  0
LINE
  8
_0-1_
  6
CONTINUOUS
 62
    7
 10
1324.1416368248497
 20
-181.54677391506979
 11
1324.1416368248497
 21
-172.54677391506988
  0
LINE
  8
_0-1_
  6
CONTINUOUS
 62
    7
 10
1324.1416368248497
 20
181.54677391506894
 11
1324.1416368248497
 21
172.54677391506945
  0
LINE
  8
_0-1_
  6
CONTINUOUS
 62
    7
 10
1324.1416368248497
 20
172.54677391506945
 11
1010.5947889409567
 21
172.54677391506945
  0
LINE
  8
_0-1_
  6
CONTINUOUS
 62
    7
 10
1324.1416368248497
 20
-172.54677391506988
 11
1010.5947889409567
 21
-172.54677391506988
  0
LINE
  8
_0-1_
  6
CONTINUOUS
 62
    7
 10
1267.5677405505851
 20
429.99999999999943
 11
1267.5677405505851
 21
196.54677391506894
  0
LINE
  8
_0-1_
  6
CONTINUOUS
 62
    7
 10
1267.5677405505851
 20
-190.54677391506971
 11
1267.5677405505851
 21
-430.00000000000028
  0
LINE
  8
_0-1_
  6
CONTINUOUS
 62
    7
 10
1010.5947889409567
 20
181.54677391506894
 11
1010.5947889409567
 21
172.54677391506945
  0
LINE
  8
_0-1_
  6
CONTINUOUS
 62
    7
 10
1010.5947889409567
 20
-172.54677391506988
 11
1010.5947889409567
 21
-181.54677391506979
  0
LINE
  8
_0-1_
  6
CONTINUOUS
 62
    7
 10
1128.3940540665067
 20
429.99999999999989
 11
1128.3940540665067
 21
181.54677391506894
  0
LINE
  8
_0-1_
  6
CONTINUOUS
 62
    7
 10
1128.3940540665067
 20
-181.54677391506979
 11
1128.3940540665067
 21
-430.00000000000028
  0
LINE
  8
_0-1_
  6
CONTINUOUS
 62
    7
 10
1398.3456414616851
 20
181.54677391506894
 11
1398.3456414616851
 21
-181.54677391506979
  0
INSERT
  2
-010-巻上__起伏____平面
  8
_0-1_
 10
977.42136057613959
 20
-18.759715989890395
 41
0.1666666666666666
 42
0.1666666666666666
 50
90
  0
LINE
  8
_0-1_
  6
CONTINUOUS
 62
    7
 10
-229.65435853831494
 20
429.99999999999943
 11
1267.5677405505851
 21
429.99999999999943
  0
LINE
  8
_0-1_
  6
CONTINUOUS
 62
    7
 10
-229.65435853831494
 20
-430.00000000000028
 11
1267.5677405505851
 21
-430.00000000000028
  0
LINE
  8
_0-1_
  6
CENTER2
 62
    4
 10
-229.65435853831494
 20
-430.00000000000028
 11
-229.65435853831494
 21
429.99999999999943
  0
LINE
  8
_0-1_
  6
CENTER2
 62
    4
 10
-659.65435853831457
 20
-0.0000000000004263
 11
1448.3456414616851
 21
-0.0000000000004263
  0
LINE
  8
_0-1_
  6
CONTINUOUS
 62
    7
 10
540.60752531992671
 20
309.99999999999943
 11
540.60752531992671
 21
-310.00000000000028
  0
INSERT
  2
-009-____
  8
_0-1_
 10
1290.5095897140179
 20
108.93630879879154
 41
1
 42
1
 50
90
  0
INSERT
  2
-009-____
  8
_0-1_
 10
1290.5095897140179
 20
149.93630879879177
 41
1
 42
1
 50
90
  0
INSERT
  2
-009-____
  8
_0-1_
 10
1290.5095897140179
 20
-1.6104651162784478
 41
1
 42
1
 50
90
  0
INSERT
  2
-009-____
  8
_0-1_
 10
1290.5095897140179
 20
-153.15723903134867
 41
1
 42
1
 50
90
  0
LINE
  8
_0-1_
  6
CONTINUOUS
 62
    7
 10
1324.1416368248497
 20
89.546773915068627
 11
1324.1416368248497
 21
80.546773915069139
  0
LINE
  8
_0-1_
  6
CONTINUOUS
 62
    7
 10
1324.1416368248497
 20
89.546773915068627
 11
1010.5947889409567
 21
89.546773915068627
  0
LINE
  8
_0-1_
  6
CONTINUOUS
 62
    7
 10
1324.1416368248497
 20
80.546773915069139
 11
1010.5947889409567
 21
80.546773915069139
  0
LINE
  8
_0-1_
  6
CONTINUOUS
 62
    7
 10
1010.5947889409567
 20
89.546773915068627
 11
1010.5947889409567
 21
80.546773915069139
  0
LINE
  8
_0-1_
  6
CONTINUOUS
 62
    7
 10
1324.1416368248497
 20
29.999999999997016
 11
1324.1416368248497
 21
20.999999999997527
  0
LINE
  8
_0-1_
  6
CONTINUOUS
 62
    7
 10
1324.1416368248497
 20
29.999999999997016
 11
1010.5947889409567
 21
29.999999999997016
  0
LINE
  8
_0-1_
  6
CONTINUOUS
 62
    7
 10
1324.1416368248497
 20
20.999999999997527
 11
1010.5947889409567
 21
20.999999999997527
  0
LINE
  8
_0-1_
  6
CONTINUOUS
 62
    7
 10
1010.5947889409567
 20
29.999999999997016
 11
1010.5947889409567
 21
20.999999999997527
  0
LINE
  8
_0-1_
  6
CONTINUOUS
 62
    7
 10
1324.1416368248497
 20
-29.999999999997868
 11
1324.1416368248497
 21
-20.99999999999838
  0
LINE
  8
_0-1_
  6
CONTINUOUS
 62
    7
 10
1324.1416368248497
 20
-20.99999999999838
 11
1010.5947889409567
 21
-20.99999999999838
  0
LINE
  8
_0-1_
  6
CONTINUOUS
 62
    7
 10
1324.1416368248497
 20
-29.999999999997868
 11
1010.5947889409567
 21
-29.999999999997868
  0
LINE
  8
_0-1_
  6
CONTINUOUS
 62
    7
 10
1010.5947889409567
 20
-20.99999999999838
 11
1010.5947889409567
 21
-29.999999999997868
  0
LINE
  8
_0-1_
  6
CONTINUOUS
 62
    7
 10
1285.3456414616851
 20
80.546773915069139
 11
1285.3456414616851
 21
29.999999999997016
  0
LINE
  8
_0-1_
  6
CONTINUOUS
 62
    7
 10
1255.3456414616851
 20
80.546773915069139
 11
1255.3456414616851
 21
29.999999999997016
  0
LINE
  8
_0-1_
  6
CONTINUOUS
 62
    7
 10
1255.3456414616851
 20
-29.999999999997868
 11
1255.3456414616851
 21
-131.54677391507093
  0
LINE
  8
_0-1_
  6
CONTINUOUS
 62
    7
 10
1285.3456414616851
 20
-29.999999999997868
 11
1285.3456414616851
 21
-131.54677391507093
  0
LINE
  8
_0-1_
  6
CONTINUOUS
 62
    7
 10
1128.3940540665067
 20
80.546773915069139
 11
1128.3940540665067
 21
29.999999999997016
  0
LINE
  8
_0-1_
  6
CONTINUOUS
 62
    7
 10
1128.3940540665067
 20
172.54677391506945
 11
1128.3940540665067
 21
89.546773915068627
  0
LINE
  8
_0-1_
  6
CONTINUOUS
 62
    7
 10
1128.3940540665067
 20
-29.999999999997868
 11
1128.3940540665067
 21
-172.54677391506988
  0
LINE
  8
_0-1_
  6
CONTINUOUS
 62
    7
 10
1128.3940540665067
 20
20.999999999997527
 11
1128.3940540665067
 21
-20.99999999999838
  0
LINE
  8
_0-1_
  6
CONTINUOUS
 62
    7
 10
1449.5602700547749
 20
181.54677391506894
 11
1010.5947889409567
 21
181.54677391506894
  0
LINE
  8
_0-1_
  6
CONTINUOUS
 62
    7
 10
1449.5602700547749
 20
181.54677391506894
 11
1449.5602700547749
 21
-181.54677391506979
  0
LINE
  8
_0-1_
  6
CONTINUOUS
 62
    7
 10
1010.5947889409567
 20
-181.54677391506979
 11
1449.5602700547749
 21
-181.54677391506979
  0
ENDBLK
  0
BLOCK
  2
-012-s1
 70
   64
 10
0
 20
0
 30
0
  0
ARC
  8
_0-2_
  6
CONTINUOUS
 62
    7
 10
985.04207463912599
 20
2510.2963812091352
 40
107.59199072632926
 50
21.825120763058553
 51
148.39778906574566
  0
INSERT
  2
-007-巻上__起伏____側面
  8
_0-2_
 10
301.63667904388018
 20
-2261.8257446523212
 41
0.3333333333333333
 42
0.3333333333333333
 50
0
  0
LINE
  8
_0-2_
  6
CONTINUOUS
 62
    7
 10
-2842.9579253608745
 20
-2687.7036187908643
 11
-2842.9579253608745
 21
-3171.7036187908648
  0
LINE
  8
_0-2_
  6
CONTINUOUS
 62
    7
 10
-2874.9579253608745
 20
-2669.7036187908648
 11
-2874.9579253608745
 21
-2687.7036187908643
  0
LINE
  8
_0-2_
  6
CONTINUOUS
 62
    7
 10
-2874.9579253608745
 20
-3171.7036187908648
 11
-2874.9579253608745
 21
-3189.7036187908643
  0
LINE
  8
_0-2_
  6
CONTINUOUS
 62
    7
 10
-2874.9579253608745
 20
-3189.7036187908643
 11
-119.45825632089594
 21
-3189.7036187908643
  0
LINE
  8
_0-2_
  6
CONTINUOUS
 62
    7
 10
-119.45825632089594
 20
-1975.9203199788622
 11
-119.45825632089594
 21
-3189.7036187908643
  0
LINE
  8
_0-2_
  6
CONTINUOUS
 62
    7
 10
-2874.9579253608745
 20
-3171.7036187908648
 11
-119.45825632089573
 21
-3171.7036187908648
  0
LINE
  8
_0-2_
  6
CONTINUOUS
 62
    7
 10
701.13889984876971
 20
2068.1376571001379
 11
979.48627281692609
 21
2068.1376571001379
  0
LINE
  8
_0-2_
  6
CONTINUOUS
 62
    7
 10
701.13889984876971
 20
2068.1376571001379
 11
701.13889984876971
 21
2086.1376571001374
  0
LINE
  8
_0-2_
  6
CONTINUOUS
 62
    7
 10
701.13889984876971
 20
2086.1376571001374
 11
979.48627281692609
 21
2086.1376571001374
  0
LINE
  8
_0-2_
  6
CONTINUOUS
 62
    7
 10
979.48627281692609
 20
2068.1376571001379
 11
979.48627281692609
 21
2086.1376571001374
  0
ARC
  8
_0-2_
  6
CONTINUOUS
 62
    7
 10
-214.95792536087379
 20
-2189.7036187908648
 40
234.1441556769831
 50
65.929088095516036
 51
96.067366388897852
  0
CIRCLE
  8
_0-2_
  6
CONTINUOUS
 62
    7
 10
-214.95792536087379
 20
-2189.7036187908648
 40
40
  0
POINT
  8
_0-2_
 62
    7
 10
-214.95792536087379
 20
-2189.7036187908648
  0
ARC
  8
_0-2_
  6
CONTINUOUS
 62
    7
 10
-214.95792536087379
 20
-2189.7036187908648
 40
95.499669039977846
 50
180.44040926242758
 51
145.85601164567453
  0
POINT
  8
_0-2_
 62
    7
 10
985.04207463912599
 20
2510.2963812091352
  0
LINE
  8
_0-2_
  6
CONTINUOUS
 62
    7
 10
-2818.957925360874
 20
-3205.7036187908643
 11
-2818.957925360874
 21
-3313.7036187908648
  0
LINE
  8
_0-2_
  6
CONTINUOUS
 62
    7
 10
-2808.957925360874
 20
-3190.5606000378916
 11
-2808.957925360874
 21
-3205.7036187908643
  0
LINE
  8
_0-2_
  6
CONTINUOUS
 62
    7
 10
-2808.957925360874
 20
-3313.7036187908648
 11
-2808.957925360874
 21
-3329.7036187908648
  0
LINE
  8
_0-2_
  6
CONTINUOUS
 62
    7
 10
-2818.957925360874
 20
-3205.7036187908643
 11
-1210.957925360874
 21
-3205.7036187908643
  0
LINE
  8
_0-2_
  6
CONTINUOUS
 62
    7
 10
-1210.957925360874
 20
-3205.7036187908643
 11
-1210.957925360874
 21
-3313.7036187908648
  0
LINE
  8
_0-2_
  6
CONTINUOUS
 62
    7
 10
-2818.957925360874
 20
-3313.7036187908648
 11
-1210.957925360874
 21
-3313.7036187908648
  0
LINE
  8
_0-2_
  6
CONTINUOUS
 62
    7
 10
-2808.957925360874
 20
-3329.7036187908648
 11
-1220.957925360874
 21
-3329.7036187908648
  0
LINE
  8
_0-2_
  6
CONTINUOUS
 62
    7
 10
-1220.957925360874
 20
-3190.5606000378916
 11
-1220.957925360874
 21
-3205.7036187908643
  0
LINE
  8
_0-2_
  6
CONTINUOUS
 62
    7
 10
-1220.957925360874
 20
-3313.7036187908648
 11
-1220.957925360874
 21
-3329.7036187908648
  0
POINT
  8
_0-2_
 62
    7
 10
-2014.9579253608738
 20
-3329.7036187908648
  0
LINE
  8
_0-2_
  6
CONTINUOUS
 62
    7
 10
465.54036959766864
 20
1633.923230722278
 11
601.30139532680062
 21
2091.9096097472143
  0
LINE
  8
_0-2_
  6
CONTINUOUS
 62
    7
 10
843.25907980214072
 20
1507.2628255450693
 11
1086.4746006631869
 21
2034.2955361376532
  0
LINE
  8
_0-2_
  6
CONTINUOUS
 62
    7
 10
465.54036959766864
 20
1633.923230722278
 11
502.40385866619891
 21
1621.5617979006472
  0
LINE
  8
_0-2_
  6
CONTINUOUS
 62
    7
 10
812.69892371982894
 20
1517.5105618819032
 11
843.25907980214072
 21
1507.2628255450693
  0
CIRCLE
  8
_0-2_
  6
CONTINUOUS
 62
    7
 10
985.04207463912599
 20
2510.2963812091352
 40
30
  0
LINE
  8
_0-2_
  6
CONTINUOUS
 62
    7
 10
1086.4746006631869
 20
2034.2955361376532
 11
1084.9221851139075
 21
2550.2963812091348
  0
LINE
  8
_0-2_
  6
CONTINUOUS
 62
    7
 10
601.30139532680062
 20
2091.9096097472143
 11
893.40525377589563
 21
2566.676604076154
  0
ARC
  8
_0-2_
  6
CONTINUOUS
 62
    7
 10
985.04207463912599
 20
2510.2963812091352
 40
245.99999999999997
 50
9.3579362846807328
 51
180
  0
ARC
  8
_0-2_
  6
CONTINUOUS
 62
    7
 10
985.04207463912599
 20
2510.2963812091352
 40
233.99999999999997
 50
9.8424870696332878
 51
180
  0
ARC
  8
_0-2_
  6
CONTINUOUS
 62
    7
 10
985.04207463912599
 20
2510.2963812091352
 40
226
 50
296.43446340319832
 51
349.80544836722959
  0
ARC
  8
_0-2_
  6
CONTINUOUS
 62
    7
 10
985.04207463912599
 20
2510.2963812091352
 40
226
 50
10.194551632770404
 51
209.96869934091319
  0
LINE
  8
_0-2_
  6
CONTINUOUS
 62
    7
 10
-2874.9579253608745
 20
-2687.7036187908643
 11
-479.88643616431665
 21
-2687.7036187908643
  0
LINE
  8
_0-2_
  6
CONTINUOUS
 62
    7
 10
-2874.9579253608745
 20
-2669.7036187908648
 11
-474.43415764439061
 21
-2669.7036187908648
  0
ARC
  8
_0-2_
  6
CONTINUOUS
 62
    7
 10
222.88235803310039
 20
184.31781551800205
 40
20
 50
73.148210454050968
 51
163.14821045405097
  0
LINE
  8
_0-2_
  6
CONTINUOUS
 62
    7
 10
387.60749414549645
 20
176.21660988225545
 11
196.19592390613286
 21
234.1960094867795
  0
LINE
  8
_0-2_
  6
CONTINUOUS
 62
    7
 10
143.95887140878972
 20
41.04505725927978
 11
138.21652430160881
 21
42.784439247415477
  0
LINE
  8
_0-2_
  6
CONTINUOUS
 62
    7
 10
161.41623929786181
 20
50.385309203718542
 11
203.74120100916434
 21
190.1157554784543
  0
ARC
  8
_0-2_
  6
CONTINUOUS
 62
    7
 10
148.01742938110638
 20
54.443867176035234
 40
14
 50
253.14821045405097
 51
343.14821045405097
  0
LINE
  8
_0-2_
  6
CONTINUOUS
 62
    7
 10
385.86811215736071
 20
170.47426277507461
 11
387.60749414549645
 21
176.21660988225545
  0
LINE
  8
_0-2_
  6
CONTINUOUS
 62
    7
 10
368.41074426828857
 20
161.13401083063579
 11
228.68029799355284
 21
203.45897254193838
  0
ARC
  8
_0-2_
  6
CONTINUOUS
 62
    7
 10
372.46930224060532
 20
174.53282074739127
 40
14
 50
253.14821045405097
 51
343.14821045405108
  0
LINE
  8
_0-2_
  6
CONTINUOUS
 62
    7
 10
138.21652430160893
 20
42.784439247415477
 11
329.62809453687328
 21
-15.194960370641791
  0
LINE
  8
_0-2_
  6
CONTINUOUS
 62
    7
 10
132.99837833720161
 20
25.55739792587277
 11
196.19592390613286
 21
234.1960094867795
  0
LINE
  8
_0-2_
  6
CONTINUOUS
 62
    7
 10
132.99837833720161
 20
25.55739792587277
 11
324.40994857124804
 21
-32.422001691815602
  0
LINE
  8
_0-2_
  6
CONTINUOUS
 62
    7
 10
329.62809453687339
 20
-15.194960370641631
 11
485.54472404243631
 21
20.902037223898681
  0
CIRCLE
  8
_0-2_
  6
CONTINUOUS
 62
    7
 10
473.4333607996042
 20
73.215610608074556
 40
20
  0
LINE
  8
_0-2_
  6
CONTINUOUS
 62
    7
 10
368.41074426828862
 20
161.13401083063579
 11
489.00003351650554
 21
124.6069890712596
  0
ARC
  8
_0-2_
  6
CONTINUOUS
 62
    7
 10
473.4333607996042
 20
73.215610608074556
 40
53.69725393184811
 50
283.03516486934973
 51
73.148210454050897
  0
POINT
  8
_0-2_
 62
    7
 10
473.4333607996042
 20
73.215610608074556
  0
LINE
  8
_0-2_
  6
CONTINUOUS
 62
    7
 10
352.95020491562508
 20
1453.1173634609947
 11
363.41948908508891
 21
1486.7259123547758
  0
LINE
  8
_0-2_
  6
CONTINUOUS
 62
    7
 10
765.52487191161958
 20
1361.7714650172659
 11
363.69847904854078
 21
1487.4753989572757
  0
LINE
  8
_0-2_
  6
CONTINUOUS
 62
    7
 10
755.08815092586303
 20
1327.3159658975774
 11
352.95020491562508
 21
1453.1173634609947
  0
LINE
  8
_0-2_
  6
CONTINUOUS
 62
    7
 10
760.46228799232085
 20
1344.4949836457176
 11
358.32434198208284
 21
1470.2963812091352
  0
LINE
  8
_0-2_
  6
CONTINUOUS
 62
    7
 10
748.34514789952368
 20
1367.1458230253049
 11
960.67863232007289
 21
2068.137657100136
  0
LINE
  8
_0-2_
  6
CONTINUOUS
 62
    7
 10
720.84082290129027
 20
2068.1376571001379
 11
451.65868506050737
 21
1463.260712540721
  0
LINE
  8
_0-2_
  6
CONTINUOUS
 62
    7
 10
701.13889984876971
 20
2068.1376571001379
 11
433.07450988129625
 21
1465.7723944963604
  0
POINT
  8
_0-2_
 62
    7
 10
817.57225812572926
 20
1326.6291887639661
  0
CIRCLE
  8
_0-2_
  6
CONTINUOUS
 62
    7
 10
817.57225812572926
 20
1326.6291887639661
 40
30
  0
LINE
  8
_0-2_
  6
CONTINUOUS
 62
    7
 10
818.5760980951261
 20
1449.9543553987698
 11
794.51576353872065
 21
1457.4811847941787
  0
LINE
  8
_0-2_
  6
CONTINUOUS
 62
    7
 10
818.5760980951261
 20
1449.9543553987698
 11
863.44229218586565
 21
1346.5274292721599
  0
LINE
  8
_0-2_
  6
CONTINUOUS
 62
    7
 10
769.85276438089466
 20
1341.5573472819042
 11
760.30651141874091
 21
1344.5437154574213
  0
ARC
  8
_0-2_
  6
CONTINUOUS
 62
    7
 10
817.57225812572926
 20
1326.6291887639661
 40
49.999999999999993
 50
162.6286757678879
 51
23.451010438137473
  0
LINE
  8
_0-2_
  6
CONTINUOUS
 62
    7
 10
748.11518989045692
 20
1224.7183449231504
 11
843.92475074925176
 21
1284.137470364645
  0
LINE
  8
_0-2_
  6
CONTINUOUS
 62
    7
 10
748.11518989045692
 20
1224.7183449231504
 11
724.05485533405158
 21
1232.2451743185593
  0
ARC
  8
_0-2_
  6
CONTINUOUS
 62
    7
 10
-647.63304621504722
 20
-1445.8361765496725
 40
20
 50
72.087845078692268
 51
162.08784507869225
  0
LINE
  8
_0-2_
  6
CONTINUOUS
 62
    7
 10
-237.99323636461693
 20
-1557.2234065157695
 11
-641.48187650801583
 21
-1426.805592973878
  0
ARC
  8
_0-2_
  6
CONTINUOUS
 62
    7
 10
-244.14440607164829
 20
-1576.253990091564
 40
20
 50
342.08784507869228
 51
72.087845078692268
  0
LINE
  8
_0-2_
  6
CONTINUOUS
 62
    7
 10
-358.10046655344718
 20
-1993.8412873548746
 11
-225.11382249585375
 21
-1582.4051597985954
  0
ARC
  8
_0-2_
  6
CONTINUOUS
 62
    7
 10
-377.13105012924177
 20
-1987.6901176478434
 40
20
 50
252.08784507869228
 51
342.08784507869228
  0
LINE
  8
_0-2_
  6
CONTINUOUS
 62
    7
 10
-786.77085997967197
 20
-1876.3028876817464
 11
-383.2822198362731
 21
-2006.7207012236374
  0
LINE
  8
_0-2_
  6
CONTINUOUS
 62
    7
 10
-799.65027384843518
 20
-1851.1211343989205
 11
-666.6636297908417
 21
-1439.6850068426413
  0
ARC
  8
_0-2_
  6
CONTINUOUS
 62
    7
 10
-780.61969027264058
 20
-1857.2723041059517
 40
20
 50
162.08784507869225
 51
252.08784507869225
  0
LINE
  8
_0-1_
  6
CONTINUOUS
 62
    7
 10
1083.0764229909244
 20
2473.2963812091389
 11
1083.0764229909244
 21
2547.2963812091311
  0
LINE
  8
_0-2_
  6
CONTINUOUS
 62
    7
 10
418.33952307366849
 20
1432.6615281149034
 11
-1407.2936579892248
 21
-2669.7036187908648
  0
LINE
  8
_0-2_
  6
CONTINUOUS
 62
    7
 10
435.63380306095354
 20
1427.2513333948107
 11
-1387.5917349367046
 21
-2669.7036187908639
  0
LINE
  8
_0-2_
  6
CONTINUOUS
 62
    7
 10
-626.49214747788858
 20
-3171.7036187908648
 11
737.90842691376656
 21
1332.6903239056137
  0
LINE
  8
_0-2_
  6
CONTINUOUS
 62
    7
 10
-607.68450698103584
 20
-3171.7036187908648
 11
979.48627281692609
 21
2068.1376571001379
  0
LINE
  8
_0-2_
  6
CONTINUOUS
 62
    7
 10
1241.042074639126
 20
2550.2963812091348
 11
1241.042074639126
 21
2470.2963812091352
  0
LINE
  8
_0-2_
  6
CONTINUOUS
 62
    7
 10
1085.0425272074617
 20
2470.2963812091352
 11
1253.042074639126
 21
2470.2963812091352
  0
LINE
  8
_0-2_
  6
CONTINUOUS
 62
    7
 10
1253.042074639126
 20
2538.2963812091348
 11
1253.042074639126
 21
2470.2963812091352
  0
INSERT
  2
-008-起伏____
  8
_0-1_
 10
190.52074773466998
 20
2590.8415147085225
 41
1
 42
1
 50
-6.0687484400000002
  0
LINE
  8
_0-1_
  6
CENTER2
 62
    4
 10
-79.637977595368099
 20
2623.4905351587863
 11
985.04207463912599
 21
2510.2963812091352
  0
ARC
  8
_0-1_
  6
CENTER2
 62
    7
 10
985.04207463912599
 20
2510.2963812091352
 40
214.30000000000001
 50
10.757592507454985
 51
208.26124202824471
  0
LINE
  8
_0-2_
  6
CONTINUOUS
 62
    7
 10
1084.9221851139075
 20
2550.2963812091348
 11
1343.4713318253046
 21
2550.2963812091348
  0
LINE
  8
_0-2_
  6
CONTINUOUS
 62
    7
 10
1343.4713318253046
 20
2550.2963812091348
 11
1343.4713318253046
 21
2538.2963812091348
  0
LINE
  8
_0-2_
  6
CONTINUOUS
 62
    7
 10
1253.042074639126
 20
2538.2963812091348
 11
1343.4713318253046
 21
2538.2963812091348
  0
ENDBLK
  0
BLOCK
  2
-013-フック
 70
   64
 10
0
 20
0
 30
0
  0
LINE
  8
_0-6_
  6
CONTINUOUS
 62
    7
 10
-23.669556183510565
 20
-31.745439537536981
 11
33.331615691489844
 21
-31.745439537536981
  0
LINE
  8
_0-6_
  6
CONTINUOUS
 62
    7
 10
-23.669556183510565
 20
-33.503252037536981
 11
-19.427954621009746
 21
-37.746611412532616
  0
LINE
  8
_0-6_
  6
CONTINUOUS
 62
    7
 10
29.087084441489708
 20
-37.746611412532616
 11
-19.427954621009746
 21
-37.746611412532616
  0
LINE
  8
_0-6_
  6
CONTINUOUS
 62
    7
 10
29.087084441489708
 20
-37.746611412532616
 11
33.331615691489844
 21
-33.503252037536981
  0
LINE
  8
_0-6_
  6
CONTINUOUS
 62
    7
 10
-4.1683843085101557
 20
-38.020830162535617
 11
-4.1683843085101557
 21
-43.146611412534526
  0
LINE
  8
_0-6_
  6
CONTINUOUS
 62
    7
 10
13.829857878990595
 20
-43.146611412534526
 11
-4.1683843085101557
 21
-43.146611412534526
  0
LINE
  8
_0-6_
  6
CONTINUOUS
 62
    7
 10
13.829857878990595
 20
-38.020830162535617
 11
13.829857878990595
 21
-43.146611412534526
  0
LINE
  8
_0-6_
  6
CONTINUOUS
 62
    7
 10
-16.139087433509474
 20
-51.525517662534526
 11
-14.100610871010701
 21
-51.525517662534526
  0
LINE
  8
_0-6_
  6
CONTINUOUS
 62
    7
 10
-14.18264212101036
 20
-73.886064537534253
 11
-16.336548371010906
 21
-73.886064537534253
  0
LINE
  8
_0-6_
  6
CONTINUOUS
 62
    7
 10
-11.795532746010906
 20
-71.712236412535617
 11
-10.238110871009951
 21
-55.317705162532889
  0
LINE
  8
_0-6_
  6
CONTINUOUS
 62
    7
 10
-3.9873296210103604
 20
-44.829423912532889
 11
-11.639087433510156
 21
-47.90676766253398
  0
LINE
  8
_0-6_
  6
CONTINUOUS
 62
    7
 10
-0.9468999335095418
 20
-55.310673912533161
 11
-10.135571808509951
 21
-55.423173912535617
  0
LINE
  8
_0-6_
  6
CONTINUOUS
 62
    7
 10
-16.170728058509951
 20
-51.546611412533707
 11
-16.170728058509951
 21
-73.92239266253398
  0
LINE
  8
_0-6_
  6
CONTINUOUS
 62
    7
 10
-7.219360871010565
 20
-90.363798912532616
 11
-7.6963139960096782
 21
-87.743486412534253
  0
LINE
  8
_0-6_
  6
CONTINUOUS
 62
    7
 10
-7.6963139960096782
 20
-87.743486412534253
 11
-8.7890874335093372
 21
-83.332548912532616
  0
LINE
  8
_0-6_
  6
CONTINUOUS
 62
    7
 10
-8.7890874335093372
 20
-83.332548912532616
 11
-10.629517121009542
 21
-79.227470787529342
  0
LINE
  8
_0-6_
  6
CONTINUOUS
 62
    7
 10
-10.629517121009542
 20
-79.227470787529342
 11
-13.702759308510224
 21
-75.62161141253398
  0
LINE
  8
_0-6_
  6
CONTINUOUS
 62
    7
 10
-13.702759308510224
 20
-75.62161141253398
 11
-16.23752493351077
 21
-73.833330162532889
  0
LINE
  8
_0-6_
  6
CONTINUOUS
 62
    7
 10
-16.23752493351077
 20
-73.833330162532889
 11
-18.469946808509405
 21
-72.702470787536981
  0
LINE
  8
_0-6_
  6
CONTINUOUS
 62
    7
 10
-18.469946808509405
 20
-72.702470787536981
 11
-22.667017121009678
 21
-71.271611412534526
  0
LINE
  8
_0-6_
  6
CONTINUOUS
 62
    7
 10
-22.667017121009678
 20
-71.271611412534526
 11
-26.549438996010224
 21
-70.763017662531524
  0
LINE
  8
_0-6_
  6
CONTINUOUS
 62
    7
 10
-26.549438996010224
 20
-70.763017662531524
 11
-29.258813996009678
 21
-71.495439537531524
  0
LINE
  8
_0-6_
  6
CONTINUOUS
 62
    7
 10
-29.258813996009678
 20
-71.495439537531524
 11
-29.949634308510156
 21
-72.612236412534799
  0
LINE
  8
_0-6_
  6
CONTINUOUS
 62
    7
 10
-29.949634308510156
 20
-72.612236412534799
 11
-29.998267121009405
 21
-73.188798912532889
  0
LINE
  8
_0-6_
  6
CONTINUOUS
 62
    7
 10
-29.998267121009405
 20
-73.188798912532889
 11
-29.835376496009474
 21
-74.339580162533707
  0
LINE
  8
_0-6_
  6
CONTINUOUS
 62
    7
 10
-29.835376496009474
 20
-74.339580162533707
 11
-29.42111868351077
 21
-75.616923912536436
  0
LINE
  8
_0-6_
  6
CONTINUOUS
 62
    7
 10
-29.42111868351077
 20
-75.616923912536436
 11
-28.832837433510292
 21
-76.934111412535344
  0
LINE
  8
_0-6_
  6
CONTINUOUS
 62
    7
 10
-28.832837433510292
 20
-76.934111412535344
 11
-28.446704621010497
 21
-77.682939537536981
  0
LINE
  8
_0-6_
  6
CONTINUOUS
 62
    7
 10
-28.446704621010497
 20
-77.682939537536981
 11
-27.551978058509405
 21
-79.226298912535071
  0
LINE
  8
_0-6_
  6
CONTINUOUS
 62
    7
 10
-27.551978058509405
 20
-79.226298912535071
 11
-25.951196808510701
 21
-81.653252037537527
  0
LINE
  8
_0-6_
  6
CONTINUOUS
 62
    7
 10
-25.951196808510701
 20
-81.653252037537527
 11
-24.457642121009542
 21
-83.946611412531524
  0
LINE
  8
_0-6_
  6
CONTINUOUS
 62
    7
 10
-24.457642121009542
 20
-83.946611412531524
 11
-23.274634308509405
 21
-86.283330162531797
  0
LINE
  8
_0-6_
  6
CONTINUOUS
 62
    7
 10
-23.274634308509405
 20
-86.283330162531797
 11
-22.809985871009815
 21
-87.732939537531252
  0
LINE
  8
_0-6_
  6
CONTINUOUS
 62
    7
 10
-22.809985871009815
 20
-87.732939537531252
 11
-22.695728058510838
 21
-88.26848641253207
  0
LINE
  8
_0-6_
  6
CONTINUOUS
 62
    7
 10
-22.695728058510838
 20
-88.26848641253207
 11
-22.545728058510974
 21
-89.222392662533707
  0
LINE
  8
_0-6_
  6
CONTINUOUS
 62
    7
 10
-22.545728058510974
 20
-89.222392662533707
 11
-22.44436087101036
 21
-90.199736412529887
  0
LINE
  8
_0-6_
  6
CONTINUOUS
 62
    7
 10
-22.44436087101036
 20
-90.199736412529887
 11
-22.374634308510224
 21
-91.192314537533434
  0
LINE
  8
_0-6_
  6
CONTINUOUS
 62
    7
 10
-22.374634308510224
 20
-91.192314537533434
 11
-22.342407746010906
 21
-91.772392662534799
  0
LINE
  8
_0-6_
  6
CONTINUOUS
 62
    7
 10
-4.1654546210108379
 20
-43.390361412536436
 11
-3.9340093085101557
 21
-44.55754891253207
  0
LINE
  8
_0-6_
  6
CONTINUOUS
 62
    7
 10
-3.9340093085101557
 20
-44.55754891253207
 11
-3.5256108710100875
 21
-46.56848641253589
  0
LINE
  8
_0-6_
  6
CONTINUOUS
 62
    7
 10
-3.5256108710100875
 20
-46.56848641253589
 11
-3.0802983710097465
 21
-48.567705162535617
  0
LINE
  8
_0-6_
  6
CONTINUOUS
 62
    7
 10
-3.0802983710097465
 20
-48.567705162535617
 11
-2.5769780585099511
 21
-50.548173912531524
  0
LINE
  8
_0-6_
  6
CONTINUOUS
 62
    7
 10
-2.5769780585099511
 20
-50.548173912531524
 11
-2.24885305850961
 21
-51.688408287529342
  0
LINE
  8
_0-6_
  6
CONTINUOUS
 62
    7
 10
-2.24885305850961
 20
-51.688408287529342
 11
-1.6623296210107696
 21
-53.48254891253589
  0
LINE
  8
_0-6_
  6
CONTINUOUS
 62
    7
 10
-1.6623296210107696
 20
-53.48254891253589
 11
-0.49104055850961
 21
-56.524736412531524
  0
LINE
  8
_0-6_
  6
CONTINUOUS
 62
    7
 10
-0.49104055850961
 20
-56.524736412531524
 11
0.8466547539896396
 21
-59.509502037535071
  0
LINE
  8
_0-6_
  6
CONTINUOUS
 62
    7
 10
0.8466547539896396
 20
-59.509502037535071
 11
2.2986078789895714
 21
-62.44739266253589
  0
LINE
  8
_0-6_
  6
CONTINUOUS
 62
    7
 10
2.2986078789895714
 20
-62.44739266253589
 11
3.1757563164896396
 21
-64.134892662531797
  0
LINE
  8
_0-6_
  6
CONTINUOUS
 62
    7
 10
3.1757563164896396
 20
-64.134892662531797
 11
4.5790766289903218
 21
-66.761064537535617
  0
LINE
  8
_0-6_
  6
CONTINUOUS
 62
    7
 10
4.5790766289903218
 20
-66.761064537535617
 11
7.0657953789904582
 21
-71.243486412535617
  0
LINE
  8
_0-6_
  6
CONTINUOUS
 62
    7
 10
7.0657953789904582
 20
-71.243486412535617
 11
9.6134516289893668
 21
-75.68020516253398
  0
LINE
  8
_0-6_
  6
CONTINUOUS
 62
    7
 10
9.6134516289893668
 20
-75.68020516253398
 11
12.199779753990185
 21
-80.091142662535617
  0
LINE
  8
_0-6_
  6
CONTINUOUS
 62
    7
 10
12.199779753990185
 20
-80.091142662535617
 11
13.706225066489708
 21
-82.644658287533161
  0
LINE
  8
_0-6_
  6
CONTINUOUS
 62
    7
 10
13.387475066489571
 20
-43.390361412536436
 11
13.686889128990458
 21
-44.606767662536981
  0
LINE
  8
_0-6_
  6
CONTINUOUS
 62
    7
 10
13.686889128990458
 20
-44.606767662536981
 11
14.237670378990117
 21
-46.686845787536981
  0
LINE
  8
_0-6_
  6
CONTINUOUS
 62
    7
 10
14.237670378990117
 20
-46.686845787536981
 11
14.886889128989367
 21
-48.705986412534799
  0
LINE
  8
_0-6_
  6
CONTINUOUS
 62
    7
 10
14.886889128989367
 20
-48.705986412534799
 11
15.69606881648923
 21
-50.63137703753398
  0
LINE
  8
_0-6_
  6
CONTINUOUS
 62
    7
 10
15.69606881648923
 20
-50.63137703753398
 11
16.259740691490663
 21
-51.688408287529342
  0
LINE
  8
_0-6_
  6
CONTINUOUS
 62
    7
 10
16.259740691490663
 20
-51.688408287529342
 11
17.163842253990254
 21
-53.046611412532343
  0
LINE
  8
_0-6_
  6
CONTINUOUS
 62
    7
 10
17.163842253990254
 20
-53.046611412532343
 11
19.033568816490458
 21
-55.195830162535344
  0
LINE
  8
_0-6_
  6
CONTINUOUS
 62
    7
 10
19.033568816490458
 20
-55.195830162535344
 11
21.185717253989367
 21
-57.149345787533434
  0
LINE
  8
_0-6_
  6
CONTINUOUS
 62
    7
 10
21.185717253989367
 20
-57.149345787533434
 11
23.504857878990322
 21
-58.968095787535617
  0
LINE
  8
_0-6_
  6
CONTINUOUS
 62
    7
 10
23.504857878990322
 20
-58.968095787535617
 11
24.876537566490526
 21
-59.985283287534799
  0
LINE
  8
_0-6_
  6
CONTINUOUS
 62
    7
 10
24.876537566490526
 20
-59.985283287534799
 11
26.12517037899039
 21
-60.900517662534526
  0
LINE
  8
_0-6_
  6
CONTINUOUS
 62
    7
 10
26.12517037899039
 20
-60.900517662534526
 11
28.251537566489162
 21
-62.470830162530433
  0
LINE
  8
_0-6_
  6
CONTINUOUS
 62
    7
 10
28.251537566489162
 20
-62.470830162530433
 11
30.331615691489162
 21
-64.059892662536981
  0
LINE
  8
_0-6_
  6
CONTINUOUS
 62
    7
 10
30.331615691489162
 20
-64.059892662536981
 11
32.354857878989094
 21
-65.69934578753589
  0
LINE
  8
_0-6_
  6
CONTINUOUS
 62
    7
 10
32.354857878989094
 20
-65.69934578753589
 11
33.49392037898923
 21
-66.68606453753398
  0
LINE
  8
_0-6_
  6
CONTINUOUS
 62
    7
 10
33.49392037898923
 20
-66.68606453753398
 11
34.71384225398964
 21
-67.807548912534799
  0
LINE
  8
_0-6_
  6
CONTINUOUS
 62
    7
 10
34.71384225398964
 20
-67.807548912534799
 11
36.754076628990049
 21
-69.823173912529342
  0
LINE
  8
_0-6_
  6
CONTINUOUS
 62
    7
 10
36.754076628990049
 20
-69.823173912529342
 11
38.732787566489435
 21
-71.913798912532343
  0
LINE
  8
_0-6_
  6
CONTINUOUS
 62
    7
 10
38.732787566489435
 20
-71.913798912532343
 11
40.674584441490254
 21
-74.053642662533434
  0
LINE
  8
_0-6_
  6
CONTINUOUS
 62
    7
 10
40.674584441490254
 20
-74.053642662533434
 11
41.792553191489503
 21
-75.302861412530433
  0
CIRCLE
  8
_0-6_
  6
CONTINUOUS
 62
    7
 10
-10.183032746009815
 20
-51.524345787533434
 40
1.7999999999999998
  0
ARC
  8
_0-6_
  6
CONTINUOUS
 62
    7
 10
4.8298578789902535
 20
-90.546611412532343
 40
12
 50
176.68438720703125
 51
46.467849731445256
  0
ARC
  8
_0-6_
  6
CONTINUOUS
 62
    7
 10
12.318139128989571
 20
-93.245439537535617
 40
34.499997711181642
 50
176.00732421875
 51
31.726470947265625
  0
ARC
  8
_0-6_
  6
CONTINUOUS
 62
    7
 10
-10.183032746009815
 20
-51.524345787533434
 40
3.9000000000000004
 50
271.53414916992187
 51
180.2713928222656
  0
ARC
  8
_0-6_
  6
CONTINUOUS
 62
    7
 10
-14.18264212101036
 20
-71.487236412537527
 40
2.3999995708465578
 50
270
 51
354.58570861816406
  0
LINE
  8
_0-6_
  6
CONTINUOUS
 62
    7
 10
0.0316156914894349
 20
463.85456275128291
 11
9.6298578789892986
 21
463.85456275128291
  0
LINE
  8
_0-6_
  6
CENTER1
 62
    7
 10
0.0316156914894349
 20
442.85456275128155
 11
9.6298578789892986
 21
442.85456275128155
  0
LINE
  8
_0-6_
  6
CONTINUOUS
 62
    7
 10
0.0316156914894349
 20
463.85456275128291
 11
0.0316156914894349
 21
422.52604712628482
  0
LINE
  8
_0-6_
  6
CONTINUOUS
 62
    7
 10
9.6298578789892986
 20
463.85456275128291
 11
9.6298578789892986
 21
422.52604712628482
  0
POINT
  8
_0-6_
 62
    7
 10
4.8310297539896396
 20
463.85456275128291
  0
LINE
  8
_0-6_
  6
CONTINUOUS
 62
    7
 10
-21.972681183509337
 20
422.52604712628482
 11
-23.669556183510565
 21
420.83034400128128
  0
LINE
  8
_0-6_
  6
CONTINUOUS
 62
    7
 10
31.634740691490322
 20
422.52604712628482
 11
-21.972681183509337
 21
422.52604712628482
  0
LINE
  8
_0-6_
  6
CONTINUOUS
 62
    7
 10
31.634740691490322
 20
422.52604712628482
 11
33.331615691489844
 21
420.83034400128128
  0
LINE
  8
_0-6_
  6
CONTINUOUS
 62
    7
 10
40.831029753989725
 20
392.52604712628482
 11
-31.168970246010446
 21
392.52604712628482
  0
LINE
  8
_0-6_
  6
CONTINUOUS
 62
    7
 10
-31.168970246010446
 20
392.52604712628482
 11
-31.168970246010446
 21
-7.7466114125326158
  0
LINE
  8
_0-6_
  6
CONTINUOUS
 62
    7
 10
40.831029753989725
 20
-7.7466114125326158
 11
-31.168970246010446
 21
-7.7466114125326158
  0
LINE
  8
_0-6_
  6
CONTINUOUS
 62
    7
 10
40.831029753989725
 20
392.52604712628482
 11
40.831029753989725
 21
-7.7466114125326158
  0
LINE
  8
_0-6_
  6
CONTINUOUS
 62
    7
 10
-23.669556183510565
 20
-7.7466114125326158
 11
-23.669556183510565
 21
-33.503252037536981
  0
LINE
  8
_0-6_
  6
CONTINUOUS
 62
    7
 10
33.331615691489844
 20
-7.7466114125326158
 11
33.331615691489844
 21
-33.503252037536981
  0
LINE
  8
_0-6_
  6
CONTINUOUS
 62
    7
 10
-23.669556183510565
 20
422.52604712628482
 11
-23.669556183510565
 21
392.52604712628482
  0
LINE
  8
_0-6_
  6
CONTINUOUS
 62
    7
 10
33.331615691489844
 20
422.52604712628482
 11
33.331615691489844
 21
392.52604712628482
  0
ENDBLK
  0
BLOCK
  2
-014-過巻___
 70
   64
 10
0
 20
0
 30
0
  0
LINE
  8
_0-1_
  6
CONTINUOUS
 62
    7
 10
29.999999999999147
 20
-63.571428571428612
 11
9.9999999999994316
 21
-63.571428571428612
  0
LINE
  8
_0-1_
  6
CONTINUOUS
 62
    7
 10
9.9999999999994316
 20
-63.571428571428612
 11
9.9999999999994316
 21
76.428571428571104
  0
LINE
  8
_0-1_
  6
CONTINUOUS
 62
    7
 10
9.9999999999994316
 20
76.428571428571104
 11
29.999999999999147
 21
76.428571428571104
  0
LINE
  8
_0-1_
  6
CONTINUOUS
 62
    7
 10
29.999999999999147
 20
76.428571428571104
 11
29.999999999999147
 21
-63.571428571428612
  0
LINE
  8
_0-1_
  6
CONTINUOUS
 62
    7
 10
-45.000000000000853
 20
16.428571428571956
 11
-45.000000000000853
 21
-33.571428571428612
  0
LINE
  8
_0-1_
  6
CONTINUOUS
 62
    7
 10
-45.000000000000853
 20
16.428571428571956
 11
9.9999999999994316
 21
16.428571428571956
  0
LINE
  8
_0-1_
  6
CONTINUOUS
 62
    7
 10
9.9999999999994316
 20
-33.571428571428612
 11
-45.000000000000853
 21
-33.571428571428612
  0
ENDBLK
  0
BLOCK
  2
-015-____平面
 70
   64
 10
0
 20
0
 30
0
  0
LINE
  8
_0-1_
  6
CONTINUOUS
 62
    7
 10
599.99999999999898
 20
3510.0000000000009
 11
-600.00000000000102
 21
3510.0000000000009
  0
LINE
  8
_0-1_
  6
CONTINUOUS
 62
    7
 10
3509.9999999999991
 20
-599.99999999999977
 11
3509.9999999999991
 21
600.00000000000023
  0
LINE
  8
_0-1_
  6
CONTINUOUS
 62
    7
 10
599.99999999999898
 20
-3510
 11
-600.00000000000102
 21
-3510
  0
LINE
  8
_0-1_
  6
CONTINUOUS
 62
    7
 10
3509.9999999999991
 20
-599.99999999999977
 11
-3510.0000000000009
 21
-599.99999999999977
  0
LINE
  8
_0-1_
  6
CONTINUOUS
 62
    7
 10
-3510.0000000000009
 20
-599.99999999999977
 11
-3510.0000000000009
 21
600.00000000000023
  0
LINE
  8
_0-1_
  6
CONTINUOUS
 62
    7
 10
3509.9999999999991
 20
600.00000000000023
 11
-3510.0000000000009
 21
600.00000000000023
  0
LINE
  8
_0-1_
  6
DASHED1
 62
    7
 10
-600.00000000000102
 20
2976.0000000000005
 11
-24.000000000000981
 21
2976.0000000000005
  0
LINE
  8
_0-1_
  6
DASHED1
 62
    7
 10
23.999999999998849
 20
2976.0000000000005
 11
599.99999999999898
 21
2976.0000000000005
  0
LINE
  8
_0-1_
  6
DASHED1
 62
    7
 10
-600.00000000000102
 20
3024.0000000000014
 11
-24.000000000000981
 21
3024.0000000000014
  0
LINE
  8
_0-1_
  6
DASHED1
 62
    7
 10
23.999999999998849
 20
3024.0000000000014
 11
599.99999999999898
 21
3024.0000000000014
  0
LINE
  8
_0-1_
  6
DASHED1
 62
    7
 10
-3024.0000000000014
 20
600.00000000000023
 11
-3024.0000000000014
 21
24.000000000000128
  0
LINE
  8
_0-1_
  6
DASHED1
 62
    7
 10
-3024.0000000000014
 20
-23.999999999999702
 11
-3024.0000000000014
 21
-599.99999999999977
  0
LINE
  8
_0-1_
  6
DASHED1
 62
    7
 10
-2976.0000000000005
 20
600.00000000000023
 11
-2976.0000000000005
 21
24.000000000000128
  0
LINE
  8
_0-1_
  6
DASHED1
 62
    7
 10
-2976.0000000000005
 20
-23.999999999999702
 11
-2976.0000000000005
 21
-599.99999999999977
  0
LINE
  8
_0-1_
  6
DASHED1
 62
    7
 10
-600.00000000000102
 20
-3024.0000000000005
 11
-24.000000000000981
 21
-3024.0000000000005
  0
LINE
  8
_0-1_
  6
DASHED1
 62
    7
 10
23.999999999998849
 20
-3024.0000000000005
 11
599.99999999999898
 21
-3024.0000000000005
  0
LINE
  8
_0-1_
  6
DASHED1
 62
    7
 10
-600.00000000000102
 20
-2975.9999999999995
 11
-24.000000000000981
 21
-2975.9999999999995
  0
LINE
  8
_0-1_
  6
DASHED1
 62
    7
 10
23.999999999998849
 20
-2975.9999999999995
 11
599.99999999999898
 21
-2975.9999999999995
  0
LINE
  8
_0-1_
  6
DASHED1
 62
    7
 10
-3510.0000000000009
 20
-23.999999999999702
 11
3509.9999999999991
 21
-23.999999999999702
  0
LINE
  8
_0-1_
  6
DASHED1
 62
    7
 10
2975.9999999999986
 20
600.00000000000023
 11
2975.9999999999986
 21
24.000000000000128
  0
LINE
  8
_0-1_
  6
DASHED1
 62
    7
 10
2975.9999999999986
 20
-23.999999999999702
 11
2975.9999999999986
 21
-599.99999999999977
  0
LINE
  8
_0-1_
  6
DASHED1
 62
    7
 10
3023.9999999999995
 20
600.00000000000023
 11
3023.9999999999995
 21
24.000000000000128
  0
LINE
  8
_0-1_
  6
DASHED1
 62
    7
 10
3023.9999999999995
 20
-23.999999999999702
 11
3023.9999999999995
 21
-599.99999999999977
  0
LINE
  8
_0-1_
  6
DASHED1
 62
    7
 10
-3510.0000000000009
 20
24.000000000000128
 11
3509.9999999999991
 21
24.000000000000128
  0
LINE
  8
_0-1_
  6
CENTER2
 62
    4
 10
-3510.0000000000009
 20
0.0000000000002131
 11
3509.9999999999982
 21
0.0000000000002131
  0
LINE
  8
_0-1_
  6
CENTER2
 62
    4
 10
-0.0000000000010658
 20
-3509.9999999999991
 11
-0.0000000000010658
 21
3510.0000000000009
  0
LINE
  8
_0-1_
  6
CENTER2
 62
    4
 10
-3000.0000000000009
 20
600.00000000000023
 11
-3000.0000000000009
 21
-599.99999999999977
  0
LINE
  8
_0-1_
  6
CENTER2
 62
    4
 10
-600.00000000000102
 20
-3000
 11
599.99999999999875
 21
-3000
  0
LINE
  8
_0-1_
  6
CENTER2
 62
    4
 10
2999.9999999999991
 20
-600.00000000000023
 11
2999.9999999999991
 21
599.99999999999977
  0
LINE
  8
_0-1_
  6
CENTER2
 62
    4
 10
599.99999999999932
 20
3000.0000000000009
 11
-600.00000000000068
 21
3000.0000000000009
  0
LINE
  8
_0-1_
  6
CONTINUOUS
 62
    7
 10
-600.00000000000102
 20
-3510
 11
-600.00000000000102
 21
-599.99999999999977
  0
LINE
  8
_0-1_
  6
CONTINUOUS
 62
    7
 10
-600.00000000000102
 20
600.00000000000023
 11
-600.00000000000102
 21
3510.0000000000009
  0
LINE
  8
_0-1_
  6
CONTINUOUS
 62
    7
 10
599.99999999999898
 20
-3510
 11
599.99999999999898
 21
-599.99999999999977
  0
LINE
  8
_0-1_
  6
CONTINUOUS
 62
    7
 10
599.99999999999898
 20
600.00000000000023
 11
599.99999999999898
 21
3510.0000000000009
  0
POINT
  8
_0-1_
 62
    7
 10
-0.0000000000010658
 20
0.0000000000002131
  0
LINE
  8
_0-1_
  6
DASHED1
 62
    7
 10
23.999999999998849
 20
3510.0000000000009
 11
23.999999999998849
 21
24.000000000000128
  0
LINE
  8
_0-1_
  6
DASHED1
 62
    7
 10
23.999999999998849
 20
-23.999999999999702
 11
23.999999999998849
 21
-3509.9999999999991
  0
LINE
  8
_0-1_
  6
DASHED1
 62
    7
 10
-24.000000000000981
 20
3510.0000000000009
 11
-24.000000000000981
 21
24.000000000000128
  0
LINE
  8
_0-1_
  6
DASHED1
 62
    7
 10
-24.000000000000981
 20
-23.999999999999702
 11
-24.000000000000981
 21
-3509.9999999999991
  0
CIRCLE
  8
_0-1_
  6
CONTINUOUS
 62
    7
 10
-296.65627484771414
 20
-1060.4562748477149
 40
66
  0
CIRCLE
  8
_0-1_
  6
CONTINUOUS
 62
    7
 10
296.65627484771221
 20
-1060.4562748477147
 40
66
  0
POINT
  8
_0-1_
 62
    7
 10
-0.0000000000010658
 20
0.0000000000002131
  0
CIRCLE
  8
_0-1_
  6
CONTINUOUS
 62
    7
 10
1060.4562748477138
 20
-296.65627484771329
 40
66
  0
CIRCLE
  8
_0-1_
  6
CONTINUOUS
 62
    7
 10
1060.4562748477138
 20
296.65627484771329
 40
66
  0
CIRCLE
  8
_0-1_
  6
CONTINUOUS
 62
    7
 10
296.65627484771221
 20
1060.4562748477149
 40
66
  0
CIRCLE
  8
_0-1_
  6
CONTINUOUS
 62
    7
 10
-296.65627484771414
 20
1060.4562748477149
 40
66
  0
CIRCLE
  8
_0-1_
  6
CONTINUOUS
 62
    7
 10
-1060.456274847716
 20
296.65627484771369
 40
66
  0
CIRCLE
  8
_0-1_
  6
CONTINUOUS
 62
    7
 10
-1060.456274847716
 20
-296.65627484771284
 40
66
  0
ENDBLK
  0
BLOCK
  2
-016-_____平面
 70
   64
 10
0
 20
0
 30
0
  0
LINE
  8
_0-1_
  6
CONTINUOUS
 62
    7
 10
-1229.9999999999932
 20
-5207.3900201260503
 11
1170.0000000000068
 21
-5207.3900201260503
  0
LINE
  8
_0-1_
  6
CONTINUOUS
 62
    7
 10
-2309.9999999999959
 20
-3407.3900201260499
 11
-1229.9999999999932
 21
-2807.3900201260499
  0
LINE
  8
_0-0_
  6
CENTER2
 62
    4
 10
-29.999999999993179
 20
-6026.6874037398566
 11
-29.999999999993179
 21
5472.6099798739515
  0
CIRCLE
  8
_0-1_
  6
CONTINUOUS
 62
    7
 10
-29.999999999993179
 20
-4007.3900201260499
 40
480
  0
LINE
  8
_0-1_
  6
CONTINUOUS
 62
    7
 10
-1229.9999999999932
 20
-2807.3900201260499
 11
1170.0000000000068
 21
-2807.3900201260499
  0
LINE
  8
_0-1_
  6
CONTINUOUS
 62
    7
 10
2250.0000000000086
 20
-4607.3900201260503
 11
2250.0000000000086
 21
-3407.3900201260499
  0
LINE
  8
_0-1_
  6
CONTINUOUS
 62
    7
 10
-2309.9999999999959
 20
-4607.3900201260503
 11
-2309.9999999999959
 21
-3407.3900201260499
  0
LINE
  8
_0-1_
  6
CONTINUOUS
 62
    7
 10
1170.0000000000068
 20
-2807.3900201260499
 11
2250.0000000000086
 21
-3407.3900201260499
  0
LINE
  8
_0-1_
  6
CONTINUOUS
 62
    7
 10
2250.0000000000086
 20
-4607.3900201260503
 11
1170.0000000000068
 21
-5207.3900201260503
  0
LINE
  8
_0-1_
  6
CONTINUOUS
 62
    7
 10
-1229.9999999999932
 20
-5207.3900201260503
 11
-2309.9999999999959
 21
-4607.3900201260503
  0
LINE
  8
_0-1_
  6
DASHED1
 62
    7
 10
-2129.9999999999959
 20
-3307.3900201260503
 11
-2129.9999999999959
 21
-4707.3900201260494
  0
LINE
  8
_0-1_
  6
DASHED1
 62
    7
 10
2070.0000000000086
 20
-3307.3900201260503
 11
2070.0000000000086
 21
-4707.3900201260494
  0
LINE
  8
_0-1_
  6
CONTINUOUS
 62
    7
 10
-1379.9999999999941
 20
-5987.3900201260503
 11
-1379.9999999999941
 21
-5807.3900201260503
  0
LINE
  8
_0-1_
  6
CONTINUOUS
 62
    7
 10
-1379.9999999999941
 20
-5807.3900201260503
 11
1320.0000000000077
 21
-5807.3900201260503
  0
LINE
  8
_0-1_
  6
CONTINUOUS
 62
    7
 10
-1379.9999999999941
 20
-5987.3900201260503
 11
1320.0000000000077
 21
-5987.3900201260503
  0
LINE
  8
_0-1_
  6
CONTINUOUS
 62
    7
 10
-2129.9999999999959
 20
-5057.3900201260485
 11
-2129.9999999999959
 21
-4707.3900201260494
  0
LINE
  8
_0-1_
  6
CONTINUOUS
 62
    7
 10
-1379.9999999999941
 20
-5807.3900201260503
 11
-2129.9999999999959
 21
-5057.3900201260485
  0
LINE
  8
_0-1_
  6
CONTINUOUS
 62
    7
 10
2070.0000000000086
 20
-5057.3900201260494
 11
2070.0000000000086
 21
-4707.3900201260494
  0
LINE
  8
_0-1_
  6
CONTINUOUS
 62
    7
 10
1320.0000000000077
 20
-5807.3900201260503
 11
2070.0000000000086
 21
-5057.3900201260494
  0
LINE
  8
_0-1_
  6
CONTINUOUS
 62
    7
 10
570.00000000000591
 20
-5987.3900201260503
 11
1320.0000000000077
 21
-5987.3900201260503
  0
LINE
  8
_0-1_
  6
CONTINUOUS
 62
    7
 10
1320.0000000000077
 20
-5987.3900201260503
 11
1320.0000000000077
 21
-5807.3900201260503
  0
LINE
  8
_0-1_
  6
CONTINUOUS
 62
    7
 10
-2309.9999999999959
 20
2892.6099798739501
 11
-1229.9999999999932
 21
2292.6099798739501
  0
CIRCLE
  8
_0-1_
  6
CONTINUOUS
 62
    7
 10
-29.999999999993179
 20
3492.6099798739501
 40
480
  0
LINE
  8
_0-1_
  6
CONTINUOUS
 62
    7
 10
-1229.9999999999932
 20
2292.6099798739501
 11
1170.0000000000068
 21
2292.6099798739501
  0
LINE
  8
_0-1_
  6
CONTINUOUS
 62
    7
 10
-1229.9999999999932
 20
4692.6099798739497
 11
1170.0000000000068
 21
4692.6099798739497
  0
LINE
  8
_0-1_
  6
CONTINUOUS
 62
    7
 10
2250.0000000000086
 20
4092.6099798739501
 11
2250.0000000000086
 21
2892.6099798739501
  0
LINE
  8
_0-1_
  6
CONTINUOUS
 62
    7
 10
-2309.9999999999959
 20
4092.6099798739501
 11
-2309.9999999999959
 21
2892.6099798739501
  0
LINE
  8
_0-1_
  6
CONTINUOUS
 62
    7
 10
1170.0000000000068
 20
2292.6099798739501
 11
2250.0000000000086
 21
2892.6099798739501
  0
LINE
  8
_0-1_
  6
CONTINUOUS
 62
    7
 10
2250.0000000000086
 20
4092.6099798739501
 11
1170.0000000000068
 21
4692.6099798739497
  0
LINE
  8
_0-1_
  6
CONTINUOUS
 62
    7
 10
-1229.9999999999932
 20
4692.6099798739497
 11
-2309.9999999999959
 21
4092.6099798739501
  0
LINE
  8
_0-1_
  6
DASHED1
 62
    7
 10
-2129.9999999999959
 20
2792.6099798739497
 11
-2129.9999999999959
 21
4192.6099798739497
  0
LINE
  8
_0-1_
  6
DASHED1
 62
    7
 10
2070.0000000000086
 20
2792.6099798739497
 11
2070.0000000000086
 21
4192.6099798739497
  0
LINE
  8
_0-1_
  6
CONTINUOUS
 62
    7
 10
-1379.9999999999941
 20
5472.6099798739497
 11
-1379.9999999999941
 21
5292.6099798739497
  0
LINE
  8
_0-1_
  6
CONTINUOUS
 62
    7
 10
-1379.9999999999941
 20
5292.6099798739497
 11
1320.0000000000077
 21
5292.6099798739497
  0
LINE
  8
_0-1_
  6
CONTINUOUS
 62
    7
 10
-1379.9999999999941
 20
5472.6099798739497
 11
1320.0000000000077
 21
5472.6099798739497
  0
LINE
  8
_0-1_
  6
CONTINUOUS
 62
    7
 10
-2129.9999999999959
 20
4542.6099798739488
 11
-2129.9999999999959
 21
4192.6099798739497
  0
LINE
  8
_0-1_
  6
CONTINUOUS
 62
    7
 10
2070.0000000000086
 20
4542.6099798739488
 11
2070.0000000000086
 21
4192.6099798739497
  0
LINE
  8
_0-1_
  6
CONTINUOUS
 62
    7
 10
570.00000000000591
 20
5472.6099798739497
 11
1320.0000000000077
 21
5472.6099798739497
  0
LINE
  8
_0-1_
  6
CONTINUOUS
 62
    7
 10
1320.0000000000077
 20
5472.6099798739497
 11
1320.0000000000077
 21
5292.6099798739497
  0
LINE
  8
_0-1_
  6
CONTINUOUS
 62
    7
 10
-1379.9999999999941
 20
5292.6099798739497
 11
-2129.9999999999959
 21
4542.6099798739488
  0
LINE
  8
_0-1_
  6
CONTINUOUS
 62
    7
 10
1320.0000000000077
 20
5292.6099798739497
 11
2070.0000000000086
 21
4542.6099798739488
  0
LINE
  8
_0-1_
  6
DASHED1
 62
    7
 10
-779.99999999999409
 20
-5807.3900201260503
 11
-779.99999999999409
 21
5292.6099798739497
  0
LINE
  8
_0-1_
  6
DASHED1
 62
    7
 10
720.00000000000773
 20
-5807.3900201260503
 11
720.00000000000773
 21
5292.6099798739497
  0
POINT
  8
_0-1_
 62
    7
 10
-29.999999999993179
 20
-257.39002012604999
  0
POINT
  8
_0-1_
 62
    7
 10
-29.999999999993179
 20
3492.6099798739501
  0
POINT
  8
_0-1_
 62
    7
 10
-29.999999999993179
 20
-4007.3900201260499
  0
LINE
  8
_0-0_
  6
CENTER2
 62
    4
 10
-2309.9999999999959
 20
3492.6099798739501
 11
2250.0000000000086
 21
3492.6099798739501
  0
LINE
  8
_0-0_
  6
CENTER2
 62
    4
 10
-2129.9999999999959
 20
-257.39002012604999
 11
2070.0000000000086
 21
-257.39002012604999
  0
LINE
  8
_0-0_
  6
CENTER2
 62
    4
 10
-2309.9999999999959
 20
-4007.3900201260499
 11
2250.0000000000086
 21
-4007.3900201260499
  0
LINE
  8
_0-1_
  6
CONTINUOUS
 62
    7
 10
-629.99999999999409
 20
4692.6099798739497
 11
-629.99999999999409
 21
5292.6099798739497
  0
LINE
  8
_0-1_
  6
CONTINUOUS
 62
    7
 10
570.00000000000591
 20
4692.6099798739497
 11
570.00000000000591
 21
5292.6099798739497
  0
LINE
  8
_0-1_
  6
CONTINUOUS
 62
    7
 10
-629.99999999999409
 20
-5807.3900201260503
 11
-629.99999999999409
 21
-5207.3900201260503
  0
LINE
  8
_0-1_
  6
CONTINUOUS
 62
    7
 10
-629.99999999999409
 20
-2807.3900201260499
 11
-629.99999999999409
 21
2292.6099798739501
  0
LINE
  8
_0-1_
  6
CONTINUOUS
 62
    7
 10
570.00000000000591
 20
-5807.3900201260503
 11
570.00000000000591
 21
-5207.3900201260503
  0
LINE
  8
_0-1_
  6
CONTINUOUS
 62
    7
 10
570.00000000000591
 20
-2807.3900201260499
 11
570.00000000000591
 21
2292.6099798739501
  0
LINE
  8
_0-1_
  6
DASHED1
 62
    7
 10
-629.99999999999409
 20
-5207.3900201260503
 11
-629.99999999999409
 21
-2807.3900201260499
  0
LINE
  8
_0-1_
  6
DASHED1
 62
    7
 10
570.00000000000591
 20
-5207.3900201260503
 11
570.00000000000591
 21
-2807.3900201260499
  0
LINE
  8
_0-1_
  6
DASHED1
 62
    7
 10
-629.99999999999409
 20
2292.6099798739501
 11
-629.99999999999409
 21
4692.6099798739497
  0
LINE
  8
_0-1_
  6
DASHED1
 62
    7
 10
570.00000000000591
 20
2292.6099798739501
 11
570.00000000000591
 21
4692.6099798739497
  0
LINE
  8
_0-1_
  6
CONTINUOUS
 62
    7
 10
-2129.9999999999959
 20
-3307.3900201260503
 11
-2129.9999999999959
 21
2792.6099798739488
  0
LINE
  8
_0-1_
  6
CONTINUOUS
 62
    7
 10
-2129.9999999999959
 20
4192.6099798739497
 11
-2129.9999999999959
 21
4542.6099798739488
  0
LINE
  8
_0-1_
  6
CONTINUOUS
 62
    7
 10
2070.0000000000086
 20
-3307.3900201260503
 11
2070.0000000000086
 21
2792.6099798739506
  0
LINE
  8
_0-1_
  6
CONTINUOUS
 62
    7
 10
2070.0000000000086
 20
4192.6099798739497
 11
2070.0000000000086
 21
4542.6099798739488
  0
LINE
  8
_0-1_
  6
DASHED1
 62
    7
 10
-2129.9999999999959
 20
2792.6099798739506
 11
-2129.9999999999959
 21
4192.6099798739497
  0
LINE
  8
_0-1_
  6
DASHED1
 62
    7
 10
2070.0000000000086
 20
2792.6099798739497
 11
2070.0000000000086
 21
4192.6099798739497
  0
ENDBLK
  0
BLOCK
  2
-017-M30-1
 70
   64
 10
0
 20
0
 30
0
  0
LINE
  8
_0-5_
  6
CONTINUOUS
 62
    7
 10
-99.593999999999596
 20
172.50000000000085
 11
-199.18800000000005
 21
0.0000000000008526
  0
LINE
  8
_0-5_
  6
CONTINUOUS
 62
    7
 10
-199.18800000000005
 20
0.0000000000008526
 11
-99.593999999999596
 21
-172.49999999999915
  0
LINE
  8
_0-5_
  6
CONTINUOUS
 62
    7
 10
-99.593999999999596
 20
-172.49999999999915
 11
99.593999999999596
 21
-172.49999999999915
  0
LINE
  8
_0-5_
  6
CONTINUOUS
 62
    7
 10
99.593999999999596
 20
-172.49999999999915
 11
199.18800000000005
 21
0.0000000000008526
  0
LINE
  8
_0-5_
  6
CONTINUOUS
 62
    7
 10
199.18800000000005
 20
0.0000000000008526
 11
99.593999999999596
 21
172.50000000000085
  0
LINE
  8
_0-5_
  6
CONTINUOUS
 62
    7
 10
99.593999999999596
 20
172.50000000000085
 11
-99.593999999999596
 21
172.50000000000085
  0
CIRCLE
  8
_0-5_
  6
CONTINUOUS
 62
    7
 10
0
 20
0.0000000000008526
 40
165
  0
CIRCLE
  8
_0-5_
  6
CONTINUOUS
 62
    7
 10
0
 20
0.0000000000008526
 40
112.5
  0
CIRCLE
  8
_0-5_
  6
CONTINUOUS
 62
    7
 10
0
 20
0.0000000000008526
 40
98.298000000000002
  0
ENDBLK
  0
BLOCK
  2
-018-___
 70
   64
 10
0
 20
0
 30
0
  0
LINE
  8
_0-1_
  6
CONTINUOUS
 62
    7
 10
-9016.8765295432804
 20
-1200.7068321930801
 11
-9016.8765295432804
 21
1199.2931678069199
  0
LINE
  8
_0-1_
  6
CONTINUOUS
 62
    7
 10
8983.1234704567196
 20
-1200.7068321930801
 11
8983.1234704567196
 21
1199.2931678069199
  0
LINE
  8
_0-1_
  6
CONTINUOUS
 62
    7
 10
-9016.8765295432804
 20
1199.2931678069199
 11
8983.1234704567196
 21
1199.2931678069199
  0
LINE
  8
_0-1_
  6
CONTINUOUS
 62
    7
 10
-9016.8765295432804
 20
-1200.7068321930801
 11
8983.1234704567196
 21
-1200.7068321930801
  0
LINE
  8
_0-1_
  6
CONTINUOUS
 62
    7
 10
-8944.8765295432804
 20
-1200.7068321930801
 11
-8944.8765295432804
 21
1199.2931678069199
  0
LINE
  8
_0-1_
  6
CONTINUOUS
 62
    7
 10
8911.1234704567196
 20
-1200.7068321930801
 11
8911.1234704567196
 21
1199.2931678069199
  0
LINE
  8
_0-1_
  6
CONTINUOUS
 62
    7
 10
-8944.8765295432804
 20
599.29316780691966
 11
8911.1234704567196
 21
599.29316780691966
  0
LINE
  8
_0-1_
  6
CONTINUOUS
 62
    7
 10
-8944.8765295432804
 20
-600.70683219308012
 11
8911.1234704567196
 21
-600.70683219308012
  0
LINE
  8
_0-1_
  6
CONTINUOUS
 62
    7
 10
-8644.8765295432804
 20
-594.69875855189821
 11
-8644.8765295432804
 21
599.29316780691977
  0
LINE
  8
_0-1_
  6
CONTINUOUS
 62
    7
 10
8090.5768517922106
 20
-600.70683219308012
 11
6346.3908052805837
 21
599.29316780691966
  0
LINE
  8
_0-1_
  6
CONTINUOUS
 62
    7
 10
8611.1234704567178
 20
-594.69875855189821
 11
6875.6700891212295
 21
599.29316780691909
  0
LINE
  8
_0-1_
  6
CONTINUOUS
 62
    7
 10
8611.1234704567214
 20
-594.69875855189809
 11
8611.1234704567214
 21
599.29316780691988
  0
POINT
  8
_0-1_
 62
    7
 10
-9016.8765295432804
 20
-0.7068321930801957
  0
POINT
  8
_0-1_
 62
    7
 10
8983.1234704567196
 20
-0.7068321930801957
  0
LINE
  8
_0-1_
  6
CONTINUOUS
 62
    7
 10
-6609.4231482077894
 20
-600.70683219308012
 11
-8353.6091947194163
 21
599.29316780691966
  0
LINE
  8
_0-1_
  6
CONTINUOUS
 62
    7
 10
-6088.8765295432813
 20
-594.69875855189821
 11
-7824.3299108787705
 21
599.29316780691909
  0
LINE
  8
_0-1_
  6
CONTINUOUS
 62
    7
 10
322.05748372194932
 20
599.29316780691977
 11
322.05748372194932
 21
-600.70683219308012
  0
LINE
  8
_0-1_
  6
CONTINUOUS
 62
    7
 10
622.05748372194932
 20
599.29316780691977
 11
622.05748372194932
 21
-600.70683219308012
  0
LINE
  8
_0-1_
  6
CONTINUOUS
 62
    7
 10
-5440.3045304708439
 20
599.29316780691977
 11
-5440.3045304708439
 21
-600.70683219308012
  0
LINE
  8
_0-1_
  6
CONTINUOUS
 62
    7
 10
-5740.3045304708439
 20
599.29316780691977
 11
-5740.3045304708439
 21
-600.70683219308012
  0
LINE
  8
_0-1_
  6
CONTINUOUS
 62
    7
 10
-3482.8511491353538
 20
-600.70683219308012
 11
-5227.0371956469799
 21
599.29316780691966
  0
LINE
  8
_0-1_
  6
CONTINUOUS
 62
    7
 10
-2962.3045304708448
 20
-594.69875855189821
 11
-4697.757911806335
 21
599.29316780691909
  0
LINE
  8
_0-1_
  6
CONTINUOUS
 62
    7
 10
-2740.3045304708448
 20
599.29316780691977
 11
-2740.3045304708448
 21
-600.70683219308012
  0
LINE
  8
_0-1_
  6
CONTINUOUS
 62
    7
 10
-2440.3045304708448
 20
599.29316780691977
 11
-2440.3045304708448
 21
-600.70683219308012
  0
LINE
  8
_0-1_
  6
CONTINUOUS
 62
    7
 10
-482.85114913535409
 20
-600.70683219308012
 11
-2227.0371956469812
 21
599.29316780691966
  0
LINE
  8
_0-1_
  6
CONTINUOUS
 62
    7
 10
37.695469529155048
 20
-594.69875855189821
 11
-1697.7579118063354
 21
599.29316780691909
  0
LINE
  8
_0-1_
  6
CONTINUOUS
 62
    7
 10
5967.7013508393593
 20
599.29316780691977
 11
5967.7013508393593
 21
-600.70683219308012
  0
LINE
  8
_0-1_
  6
CONTINUOUS
 62
    7
 10
6267.7013508393593
 20
599.29316780691977
 11
6267.7013508393593
 21
-600.70683219308012
  0
LINE
  8
_0-1_
  6
CONTINUOUS
 62
    7
 10
5225.1547321748494
 20
-600.70683219308012
 11
3480.968685663222
 21
599.29316780691966
  0
LINE
  8
_0-1_
  6
CONTINUOUS
 62
    7
 10
5745.7013508393575
 20
-594.69875855189821
 11
4010.2479695038683
 21
599.29316780691909
  0
LINE
  8
_0-1_
  6
CONTINUOUS
 62
    7
 10
3075.3728199664479
 20
599.29316780691977
 11
3075.3728199664479
 21
-600.70683219308012
  0
LINE
  8
_0-1_
  6
CONTINUOUS
 62
    7
 10
3375.3728199664479
 20
599.29316780691977
 11
3375.3728199664479
 21
-600.70683219308012
  0
LINE
  8
_0-1_
  6
CONTINUOUS
 62
    7
 10
2608.4928797433049
 20
-600.70683219308012
 11
864.30683323167784
 21
599.29316780691966
  0
LINE
  8
_0-1_
  6
CONTINUOUS
 62
    7
 10
3129.0394984078139
 20
-594.69875855189821
 11
1393.5861170723233
 21
599.29316780691909
  0
POINT
  8
_0-1_
 62
    7
 10
622.05748372194932
 20
-0.7068321930801957
  0
ENDBLK
  0
BLOCK
  2
-019-____中間部立面
 70
   64
 10
0
 20
0
 30
0
  0
LINE
  8
_0-4_
  6
CONTINUOUS
 62
    7
 10
2212.4729649342044
 20
84.348985052578342
 11
2212.4729649342044
 21
-165.65101494742152
  0
LINE
  8
_0-4_
  6
CONTINUOUS
 62
    7
 10
2184.4729649342044
 20
-165.65101494742152
 11
2212.4729649342044
 21
-165.65101494742152
  0
LINE
  8
_0-4_
  6
CONTINUOUS
 62
    7
 10
2184.4729649342044
 20
84.348985052578342
 11
2212.4729649342044
 21
84.348985052578342
  0
LINE
  8
_0-4_
  6
CONTINUOUS
 62
    7
 10
2184.4729649342044
 20
84.348985052578342
 11
2184.4729649342044
 21
-165.65101494742152
  0
LINE
  8
_0-4_
  6
CONTINUOUS
 62
    7
 10
2037.4729649342041
 20
-31.1510149474217
 11
2184.4729649342044
 21
-31.1510149474217
  0
LINE
  8
_0-4_
  6
CONTINUOUS
 62
    7
 10
2037.4729649342041
 20
-50.151014947421473
 11
2184.4729649342044
 21
-50.151014947421473
  0
LINE
  8
_0-4_
  6
CONTINUOUS
 62
    7
 10
2037.4729649342041
 20
40.348985052578286
 11
2184.4729649342044
 21
40.348985052578286
  0
LINE
  8
_0-4_
  6
CONTINUOUS
 62
    7
 10
2037.4729649342041
 20
-121.65101494742146
 11
2184.4729649342044
 21
-121.65101494742146
  0
LINE
  8
_0-4_
  6
CONTINUOUS
 62
    7
 10
2037.4729649342041
 20
-121.65101494742146
 11
2037.4729649342041
 21
-140.65101494742166
  0
LINE
  8
_0-4_
  6
CONTINUOUS
 62
    7
 10
2037.4729649342041
 20
59.348985052578485
 11
2037.4729649342041
 21
40.348985052578286
  0
LINE
  8
_0-4_
  6
CONTINUOUS
 62
    7
 10
2037.4729649342041
 20
-31.1510149474217
 11
2037.4729649342041
 21
-50.151014947421473
  0
CIRCLE
  8
_0-4_
  6
CONTINUOUS
 62
    7
 10
932.28897695420653
 20
79.348985052578414
 40
10.000000000000002
  0
LINE
  8
_0-4_
  6
CONTINUOUS
 62
    7
 10
907.28897695420653
 20
59.348985052578485
 11
912.77678189223855
 21
83.739229221609364
  0
LINE
  8
_0-4_
  6
CONTINUOUS
 62
    7
 10
957.28897695420642
 20
59.348985052578485
 11
951.80117201617441
 21
83.739229221609364
  0
ARC
  8
_0-4_
  6
CONTINUOUS
 62
    7
 10
932.28897695420653
 20
79.348985052578414
 40
20.000000000000004
 50
12.680383491819571
 51
167.31961650818045
  0
LINE
  8
_0-4_
  6
CONTINUOUS
 62
    7
 10
-2084.5270350657956
 20
-140.65101494742166
 11
2184.4729649342044
 21
-140.65101494742166
  0
LINE
  8
_0-4_
  6
CONTINUOUS
 62
    7
 10
-2084.5270350657956
 20
-143.8510149474215
 11
2184.4729649342044
 21
-143.8510149474215
  0
LINE
  8
_0-4_
  6
CONTINUOUS
 62
    7
 10
956.56897695420639
 20
62.548985052578345
 11
2184.4729649342044
 21
62.548985052578345
  0
CIRCLE
  8
_0-4_
  6
CONTINUOUS
 62
    7
 10
-2287.5270350657961
 20
54.848985052578314
 40
18
  0
ARC
  8
_0-4_
  6
CONTINUOUS
 62
    7
 10
-2287.5270350657961
 20
54.848985052578314
 40
37
 50
67.133540307579338
 51
62.288374036433652
  0
CIRCLE
  8
_0-4_
  6
CONTINUOUS
 62
    7
 10
-2287.5270350657961
 20
-136.15101494742149
 40
18
  0
ARC
  8
_0-4_
  6
CONTINUOUS
 62
    7
 10
-2287.5270350657961
 20
-136.15101494742149
 40
37
 50
297.71162596356635
 51
292.86645969242068
  0
LINE
  8
_0-4_
  6
CONTINUOUS
 62
    7
 10
-2287.5270350657961
 20
13.309924627755407
 11
-2287.5270350657961
 21
-94.61195452259858
  0
POINT
  8
_0-4_
 62
    7
 10
-2287.5270350657961
 20
-136.15101494742149
  0
POINT
  8
_0-4_
 62
    7
 10
-2287.5270350657961
 20
54.848985052578314
  0
LINE
  8
_0-4_
  6
CONTINUOUS
 62
    7
 10
-2084.5270350657956
 20
59.348985052578485
 11
-2281.5927752181769
 21
91.370000373362217
  0
LINE
  8
_0-4_
  6
CONTINUOUS
 62
    7
 10
-2084.5270350657956
 20
-140.65101494742166
 11
-2281.5927720107247
 21
-172.67202974702974
  0
LINE
  8
_0-4_
  6
CONTINUOUS
 62
    7
 10
-1884.5270350657956
 20
-90.651014947421729
 11
-1884.5270350657956
 21
-143.8510149474215
  0
LINE
  8
_0-4_
  6
CONTINUOUS
 62
    7
 10
-2084.5270350657956
 20
421.14898505257833
 11
-2084.5270350657956
 21
-143.8510149474215
  0
LINE
  8
_0-4_
  6
CONTINUOUS
 62
    7
 10
-1884.5270350657956
 20
-90.651014947421729
 11
-2035.5231010070058
 21
428.1354827231753
  0
LINE
  8
_0-4_
  6
CONTINUOUS
 62
    7
 10
-1928.1854764340267
 20
59.348985052578485
 11
2184.4729649342044
 21
59.348985052578485
  0
LINE
  8
_0-4_
  6
CONTINUOUS
 62
    7
 10
-1929.116856516549
 20
62.548985052578345
 11
908.00897695420656
 21
62.548985052578345
  0
ARC
  8
_0-4_
  6
CONTINUOUS
 62
    7
 10
-2059.5270350657956
 20
421.14898505257833
 40
25
 50
16.227968470607113
 51
180
  0
LINE
  8
_0-4_
  6
CENTER2
 62
    4
 10
2212.4729649342044
 20
-40.651014947421586
 11
-2287.5270350657966
 21
-40.651014947421586
  0
ENDBLK
  0
BLOCK
  2
-020-____上部立面
 70
   64
 10
0
 20
0
 30
0
  0
POINT
  8
_0-4_
 62
    7
 10
3227.8062737617229
 20
-12.565180833414757
  0
LINE
  8
_0-4_
  6
CONTINUOUS
 62
    7
 10
-2144.1937262382776
 20
-137.56518083341467
 11
-2172.193726238278
 21
-137.56518083341467
  0
LINE
  8
_0-4_
  6
CONTINUOUS
 62
    7
 10
-2144.1937262382776
 20
112.43481916658517
 11
-2144.1937262382776
 21
-137.56518083341467
  0
LINE
  8
_0-4_
  6
CONTINUOUS
 62
    7
 10
-2144.1937262382776
 20
112.43481916658517
 11
-2044.1937262382778
 21
72.434819166585314
  0
LINE
  8
_0-4_
  6
CONTINUOUS
 62
    7
 10
-2044.1937262382778
 20
72.434819166585314
 11
-2044.1937262382778
 21
62.434819166585243
  0
LINE
  8
_0-4_
  6
CONTINUOUS
 62
    7
 10
-2144.1937262382776
 20
-137.56518083341467
 11
-2044.1937262382778
 21
-97.565180833414828
  0
LINE
  8
_0-4_
  6
CONTINUOUS
 62
    7
 10
-2044.1937262382778
 20
-97.565180833414828
 11
-2044.1937262382778
 21
-87.565180833414757
  0
LINE
  8
_0-4_
  6
CONTINUOUS
 62
    7
 10
-1000.1937262382779
 20
60.434819166585356
 11
-1000.1937262382779
 21
54.434819166585484
  0
LINE
  8
_0-4_
  6
CONTINUOUS
 62
    7
 10
-1000.1937262382779
 20
60.434819166585356
 11
-2144.1937262382776
 21
60.434819166585356
  0
LINE
  8
_0-4_
  6
CONTINUOUS
 62
    7
 10
-1000.1937262382779
 20
54.434819166585484
 11
-2144.1937262382776
 21
54.434819166585484
  0
LINE
  8
_0-4_
  6
CONTINUOUS
 62
    7
 10
-1000.1937262382779
 20
-85.565180833414871
 11
-1000.1937262382779
 21
-79.565180833414999
  0
LINE
  8
_0-4_
  6
CONTINUOUS
 62
    7
 10
-1000.1937262382779
 20
-85.565180833414871
 11
-2144.1937262382776
 21
-85.565180833414871
  0
LINE
  8
_0-4_
  6
CONTINUOUS
 62
    7
 10
-1000.1937262382779
 20
-79.565180833414999
 11
-2144.1937262382776
 21
-79.565180833414999
  0
CIRCLE
  8
_0-4_
  6
CONTINUOUS
 62
    7
 10
-378.31074629827725
 20
82.434819166585172
 40
10.000000000000002
  0
LINE
  8
_0-4_
  6
CONTINUOUS
 62
    7
 10
-403.31074629827668
 20
62.434819166585243
 11
-397.82294136024461
 21
86.825063335616122
  0
LINE
  8
_0-4_
  6
CONTINUOUS
 62
    7
 10
-353.31074629827611
 20
62.434819166585243
 11
-358.79855123630904
 21
86.825063335616122
  0
ARC
  8
_0-4_
  6
CONTINUOUS
 62
    7
 10
-378.31074629827725
 20
82.434819166585172
 40
20.000000000000004
 50
12.680383491819571
 51
167.31961650818045
  0
CIRCLE
  8
_0-4_
  6
CONTINUOUS
 62
    7
 10
3227.8062737617229
 20
-12.565180833414757
 40
15
  0
LINE
  8
_0-4_
  6
CONTINUOUS
 62
    7
 10
3228.3795279714268
 20
41.434819166585157
 11
2916.5627172319005
 21
41.434819166585157
  0
LINE
  8
_0-4_
  6
CONTINUOUS
 62
    7
 10
2916.5627172319005
 20
41.434819166585157
 11
2916.5627172319005
 21
-66.565180833414672
  0
LINE
  8
_0-4_
  6
CONTINUOUS
 62
    7
 10
3228.3795279714268
 20
-66.565180833414672
 11
2916.5627172319005
 21
-66.565180833414672
  0
ARC
  8
_0-4_
  6
CONTINUOUS
 62
    7
 10
3227.8062737617229
 20
-12.565180833414757
 40
54.000000000000007
 50
270
 51
90
  0
LINE
  8
_0-4_
  6
CONTINUOUS
 62
    7
 10
-2144.1937262382776
 20
112.43481916658517
 11
-2172.193726238278
 21
112.43481916658517
  0
LINE
  8
_0-4_
  6
CONTINUOUS
 62
    7
 10
-2172.193726238278
 20
112.43481916658517
 11
-2172.193726238278
 21
-137.56518083341467
  0
LINE
  8
_0-4_
  6
CENTER2
 62
    4
 10
3227.8062737617229
 20
-12.565180833414757
 11
-2172.193726238278
 21
-12.565180833414757
  0
ARC
  8
_0-4_
  6
CONTINUOUS
 62
    7
 10
3227.8062737617229
 20
-12.565180833414757
 40
125.00000000000001
 50
205.59455227837665
 51
154.40544772162335
  0
LINE
  8
_0-4_
  6
CONTINUOUS
 62
    7
 10
3127.8062737617238
 20
62.434819166585243
 11
-2144.1937262382776
 21
62.434819166585243
  0
LINE
  8
_0-4_
  6
CONTINUOUS
 62
    7
 10
3127.8062737617238
 20
-87.565180833414757
 11
-2144.1937262382776
 21
-87.565180833414757
  0
ARC
  8
_0-4_
  6
DASHED1
 62
    7
 10
3227.8062737617229
 20
-12.565180833414757
 40
105.00000000000001
 50
210.94972307885931
 51
149.05027692114069
  0
ENDBLK
  0
BLOCK
  2
-021-____下部立面
 70
   64
 10
0
 20
0
 30
0
  0
CIRCLE
  8
_0-4_
  6
CONTINUOUS
 62
    7
 10
-857.81662457259085
 20
0.0000000130464172
 40
20.000000000000004
  0
LINE
  8
_0-4_
  6
CONTINUOUS
 62
    7
 10
-657.81662457259119
 20
103.20000001304635
 11
-657.81662457259119
 21
-103.19999998695351
  0
LINE
  8
_0-4_
  6
CONTINUOUS
 62
    7
 10
444.18337542740971
 20
36.000000013046289
 11
444.18337542740971
 21
-35.999999986953455
  0
LINE
  8
_0-4_
  6
CONTINUOUS
 62
    7
 10
-657.81662457259119
 20
100.00000001304649
 11
-869.61112234141365
 21
48.588988707824257
  0
LINE
  8
_0-4_
  6
CONTINUOUS
 62
    7
 10
-657.81662457259119
 20
-99.999999986953654
 11
-869.6111206215819
 21
-48.588989099203559
  0
ARC
  8
_0-4_
  6
CONTINUOUS
 62
    7
 10
-857.81662457259085
 20
0.0000000130464172
 40
50
 50
103.64408479549479
 51
256.35591520450515
  0
LINE
  8
_0-4_
  6
CONTINUOUS
 62
    7
 10
-655.69361552340422
 20
91.253981914673119
 11
-867.48811329222758
 21
39.842970609450887
  0
LINE
  8
_0-4_
  6
CONTINUOUS
 62
    7
 10
-655.69361552340422
 20
-91.253981888580284
 11
-867.48811157239504
 21
-39.842971000830403
  0
ARC
  8
_0-4_
  6
CONTINUOUS
 62
    7
 10
-857.81662457259085
 20
0.0000000130464172
 40
41.000000000000007
 50
103.64408479549479
 51
256.35591520450515
  0
LINE
  8
_0-4_
  6
CONTINUOUS
 62
    7
 10
-77.704147803500661
 20
91.00000001304636
 11
-657.81662457259119
 21
91.00000001304636
  0
LINE
  8
_0-4_
  6
CONTINUOUS
 62
    7
 10
-77.704147803500661
 20
-90.999999986953526
 11
-657.81662457259119
 21
-90.999999986953526
  0
LINE
  8
_0-4_
  6
CONTINUOUS
 62
    7
 10
-77.704147803500661
 20
-99.999999986953654
 11
-77.704147803500661
 21
-90.999999986953526
  0
LINE
  8
_0-4_
  6
CONTINUOUS
 62
    7
 10
-77.704147803500661
 20
91.00000001304636
 11
-77.704147803500661
 21
100.00000001304649
  0
POINT
  8
_0-4_
 62
    7
 10
-857.81662457259085
 20
0.0000000130464172
  0
LINE
  8
_0-4_
  6
CENTER2
 62
    4
 10
642.18337542740869
 20
0.0000000130464172
 11
-857.81662457259085
 21
0.0000000130464172
  0
CIRCLE
  8
_0-4_
  6
CONTINUOUS
 62
    7
 10
642.18337542740915
 20
95.500000013046318
 40
18
  0
ARC
  8
_0-4_
  6
CONTINUOUS
 62
    7
 10
642.18337542740915
 20
95.500000013046318
 40
37
 50
67.133540307579338
 51
62.288374036433652
  0
LINE
  8
_0-4_
  6
CONTINUOUS
 62
    7
 10
444.18337542740971
 20
36.000000013046289
 11
625.36550942422616
 21
128.45693225952502
  0
LINE
  8
_0-4_
  6
CONTINUOUS
 62
    7
 10
558.0729538092753
 20
11.039535688061619
 11
659.00124143090102
 21
62.543067766725358
  0
LINE
  8
_0-4_
  6
CONTINUOUS
 62
    7
 10
558.0729538092753
 20
11.039535688061619
 11
524.43722180547456
 21
76.953400182328053
  0
CIRCLE
  8
_0-4_
  6
CONTINUOUS
 62
    7
 10
642.18337542740915
 20
-95.499999986953483
 40
18
  0
ARC
  8
_0-4_
  6
CONTINUOUS
 62
    7
 10
642.18337542740915
 20
-95.499999986953483
 40
37
 50
297.71162596356635
 51
292.86645969242068
  0
LINE
  8
_0-4_
  6
CONTINUOUS
 62
    7
 10
444.18337542740971
 20
-35.999999986953455
 11
625.36550942422616
 21
-128.45693223343218
  0
LINE
  8
_0-4_
  6
CONTINUOUS
 62
    7
 10
558.0729538092753
 20
-11.039535661968785
 11
659.00124143090102
 21
-62.543067740632523
  0
LINE
  8
_0-4_
  6
CONTINUOUS
 62
    7
 10
558.0729538092753
 20
-11.039535661968785
 11
524.43722180547456
 21
-76.953400156235219
  0
LINE
  8
_0-4_
  6
CONTINUOUS
 62
    7
 10
642.18337542740915
 20
53.960939588223411
 11
642.18337542740915
 21
-53.960939562130577
  0
LINE
  8
_0-4_
  6
CONTINUOUS
 62
    7
 10
575.87106080429271
 20
103.20000001304635
 11
-657.81662457259119
 21
103.20000001304635
  0
LINE
  8
_0-4_
  6
CONTINUOUS
 62
    7
 10
575.87106080429271
 20
-103.19999998695351
 11
-657.81662457259119
 21
-103.19999998695351
  0
LINE
  8
_0-4_
  6
CONTINUOUS
 62
    7
 10
569.60021864348892
 20
-99.999999986953654
 11
-657.81662457259119
 21
-99.999999986953654
  0
POINT
  8
_0-4_
 62
    7
 10
642.18337542740915
 20
-95.499999986953483
  0
POINT
  8
_0-4_
 62
    7
 10
642.18337542740915
 20
95.500000013046318
  0
LINE
  8
_0-4_
  6
CONTINUOUS
 62
    7
 10
569.60021864348892
 20
100.00000001304649
 11
-657.81662457259119
 21
100.00000001304649
  0
ENDBLK
  0
BLOCK
  2
-022-____中間部平面
 70
   64
 10
0
 20
0
 30
0
  0
LINE
  8
_0-4_
  6
CONTINUOUS
 62
    7
 10
3191.2297291855962
 20
131.41634920995634
 11
3191.2297291855962
 21
-118.58365079004395
  0
LINE
  8
_0-4_
  6
CONTINUOUS
 62
    7
 10
3191.2297291855962
 20
131.41634920995634
 11
3191.2297291855962
 21
-118.58365079004395
  0
LINE
  8
_0-4_
  6
CONTINUOUS
 62
    7
 10
3163.2297291855962
 20
-118.58365079004395
 11
3191.2297291855962
 21
-118.58365079004395
  0
LINE
  8
_0-4_
  6
CONTINUOUS
 62
    7
 10
3163.2297291855962
 20
131.41634920995634
 11
3191.2297291855962
 21
131.41634920995634
  0
LINE
  8
_0-4_
  6
CONTINUOUS
 62
    7
 10
3163.2297291855962
 20
131.41634920995634
 11
3163.2297291855962
 21
-118.58365079004395
  0
LINE
  8
_0-4_
  6
CONTINUOUS
 62
    7
 10
3016.2297291855962
 20
-98.583650790043805
 11
3163.2297291855962
 21
-118.58365079004395
  0
LINE
  8
_0-4_
  6
CONTINUOUS
 62
    7
 10
-1345.7702708144038
 20
159.41634920995645
 11
-1345.7702708144038
 21
181.41634920995605
  0
LINE
  8
_0-4_
  6
CONTINUOUS
 62
    7
 10
-1345.7702708144038
 20
181.41634920995605
 11
-1105.7702708144038
 21
181.41634920995605
  0
LINE
  8
_0-4_
  6
CONTINUOUS
 62
    7
 10
-1105.7702708144038
 20
159.41634920995645
 11
-1105.7702708144038
 21
181.41634920995605
  0
LINE
  8
_0-4_
  6
CONTINUOUS
 62
    7
 10
-1345.7702708144038
 20
159.41634920995645
 11
-1105.7702708144038
 21
159.41634920995645
  0
LINE
  8
_0-4_
  6
CONTINUOUS
 62
    7
 10
3027.4508118806498
 20
112.94302712765079
 11
3163.2297291855962
 21
131.41634920995634
  0
LINE
  8
_0-4_
  6
CONTINUOUS
 62
    7
 10
-1345.7702708144031
 20
-168.58365079004366
 11
-1105.7702708144034
 21
-168.58365079004366
  0
LINE
  8
_0-4_
  6
CONTINUOUS
 62
    7
 10
-1105.7702708144034
 20
-146.58365079004406
 11
-1105.7702708144034
 21
-168.58365079004366
  0
LINE
  8
_0-4_
  6
CONTINUOUS
 62
    7
 10
-1345.7702708144031
 20
-146.58365079004406
 11
-1105.7702708144034
 21
-146.58365079004406
  0
LINE
  8
_0-4_
  6
CONTINUOUS
 62
    7
 10
-1308.7702708144043
 20
-146.58365079004406
 11
-1308.7702708144043
 21
159.41634920995645
  0
LINE
  8
_0-4_
  6
CONTINUOUS
 62
    7
 10
-1345.7702708144031
 20
-168.58365079004366
 11
-1308.7702708144043
 21
-168.58365079004366
  0
LINE
  8
_0-4_
  6
CONTINUOUS
 62
    7
 10
-1345.7702708144031
 20
-146.58365079004406
 11
-1345.7702708144031
 21
-168.58365079004366
  0
LINE
  8
_0-4_
  6
CONTINUOUS
 62
    7
 10
-1326.7702708144041
 20
213.41634920995637
 11
-1326.7702708144041
 21
203.41634920995608
  0
LINE
  8
_0-4_
  6
CONTINUOUS
 62
    7
 10
-1326.7702708144041
 20
213.41634920995637
 11
-1290.7702708144041
 21
213.41634920995637
  0
LINE
  8
_0-4_
  6
CONTINUOUS
 62
    7
 10
-1290.7702708144041
 20
213.41634920995637
 11
-1290.7702708144041
 21
203.41634920995608
  0
LINE
  8
_0-4_
  6
CONTINUOUS
 62
    7
 10
-1326.7702708144041
 20
-190.58365079004369
 11
-1326.7702708144041
 21
-200.58365079004398
  0
LINE
  8
_0-4_
  6
CONTINUOUS
 62
    7
 10
-1326.7702708144041
 20
-200.58365079004398
 11
-1290.7702708144041
 21
-200.58365079004398
  0
LINE
  8
_0-4_
  6
CONTINUOUS
 62
    7
 10
-1290.7702708144041
 20
-190.58365079004369
 11
-1290.7702708144041
 21
-200.58365079004398
  0
LINE
  8
_0-4_
  6
CONTINUOUS
 62
    7
 10
1886.0457412055989
 20
-106.94373801413926
 11
1936.0457412055982
 21
-106.38154546319052
  0
LINE
  8
_0-4_
  6
CONTINUOUS
 62
    7
 10
1886.0457412055985
 20
119.77643643405165
 11
1936.0457412055994
 21
119.21424388310291
  0
LINE
  8
_0-4_
  6
CONTINUOUS
 62
    7
 10
1886.0457412055985
 20
-112.94411727471024
 11
1886.0457412055985
 21
-106.94373801413926
  0
LINE
  8
_0-4_
  6
CONTINUOUS
 62
    7
 10
1886.0457412055985
 20
119.77643643405165
 11
1886.0457412055985
 21
125.7768156946222
  0
LINE
  8
_0-4_
  6
CONTINUOUS
 62
    7
 10
1936.0457412055982
 20
-112.3819247237615
 11
1936.0457412055982
 21
-106.38154546319052
  0
LINE
  8
_0-4_
  6
CONTINUOUS
 62
    7
 10
1936.0457412055982
 20
119.21424388310291
 11
1936.0457412055982
 21
125.21462314367346
  0
LINE
  8
_0-4_
  6
CONTINUOUS
 62
    7
 10
-1290.7702708144041
 20
-146.58365079004406
 11
-1290.7702708144041
 21
159.41634920995645
  0
LINE
  8
_0-4_
  6
CONTINUOUS
 62
    7
 10
-1326.7702708144041
 20
-146.58365079004406
 11
-1326.7702708144041
 21
159.41634920995645
  0
LINE
  8
_0-4_
  6
CONTINUOUS
 62
    7
 10
-1105.7702708144038
 20
256.41634920995625
 11
-1105.7702708144038
 21
159.41634920995645
  0
LINE
  8
_0-4_
  6
CONTINUOUS
 62
    7
 10
-1105.7702708144034
 20
-243.58365079004389
 11
-1105.7702708144034
 21
-146.58365079004406
  0
LINE
  8
_0-4_
  6
CONTINUOUS
 62
    7
 10
-1056.7663362138169
 20
256.41634920995625
 11
-1056.7663362138169
 21
-243.58365079004389
  0
LINE
  8
_0-4_
  6
CONTINUOUS
 62
    7
 10
-1105.7702708144034
 20
-146.58365079004406
 11
-1105.2630898873449
 21
-146.57794812326054
  0
LINE
  8
_0-4_
  6
CONTINUOUS
 62
    7
 10
-1105.7702708144034
 20
-146.58365079004406
 11
-1105.7702708144034
 21
159.41634920995645
  0
LINE
  8
_0-4_
  6
CONTINUOUS
 62
    7
 10
-1056.7663362138169
 20
158.86535626996388
 11
3163.2297291855962
 21
111.41634920995619
  0
LINE
  8
_0-4_
  6
CONTINUOUS
 62
    7
 10
-1056.7663362138169
 20
-146.03265785005152
 11
3163.2297291855966
 21
-98.583650790043805
  0
LINE
  8
_0-4_
  6
CONTINUOUS
 62
    7
 10
-1308.7702708144043
 20
-33.583650790043663
 11
-1105.7702708144034
 21
-33.583650790043663
  0
LINE
  8
_0-4_
  6
CONTINUOUS
 62
    7
 10
-1056.7663362138169
 20
-33.583650790043663
 11
3163.2297291855962
 21
-33.583650790043663
  0
LINE
  8
_0-4_
  6
CONTINUOUS
 62
    7
 10
-1308.7702708144043
 20
46.416349209956053
 11
-1105.7702708144034
 21
46.416349209956053
  0
LINE
  8
_0-4_
  6
CONTINUOUS
 62
    7
 10
-1056.7663362138169
 20
46.416349209956053
 11
3163.2297291855962
 21
46.416349209956053
  0
LINE
  8
_0-4_
  6
CENTER2
 62
    4
 10
3191.2297291855957
 20
6.4163492099561914
 11
-1308.7702708144043
 21
6.4163492099561914
  0
LINE
  8
_0-4_
  6
CONTINUOUS
 62
    7
 10
-905.77027081440383
 20
177.16884320806383
 11
-905.77027081440383
 21
157.16757900616162
  0
LINE
  8
_0-4_
  6
CONTINUOUS
 62
    7
 10
-1056.7663362138169
 20
256.41634920995625
 11
-1105.7702708144038
 21
256.41634920995625
  0
LINE
  8
_0-4_
  6
CONTINUOUS
 62
    7
 10
-905.77027081440383
 20
177.16884320806383
 11
-1056.7663362138169
 21
256.41634920995625
  0
LINE
  8
_0-4_
  6
CONTINUOUS
 62
    7
 10
-1056.7663362138169
 20
-243.58365079004389
 11
-1105.7702708144034
 21
-243.58365079004389
  0
LINE
  8
_0-4_
  6
CONTINUOUS
 62
    7
 10
-905.77027081440349
 20
-164.33614478815147
 11
-1056.7663362138169
 21
-243.58365079004389
  0
LINE
  8
_0-4_
  6
CONTINUOUS
 62
    7
 10
-905.77027081440349
 20
-164.33614478815147
 11
-905.77027081440349
 21
-144.33488058624923
  0
LINE
  8
_0-4_
  6
CONTINUOUS
 62
    7
 10
-905.77027081440349
 20
-144.33488058624923
 11
-1056.7663362138169
 21
-223.58238658814165
  0
LINE
  8
_0-4_
  6
CONTINUOUS
 62
    7
 10
-905.77027081440383
 20
157.16757900616162
 11
-1056.7663362138169
 21
236.41508500805404
  0
ENDBLK
  0
BLOCK
  2
-023-__________立面_1_
 70
   64
 10
0
 20
0
 30
0
  0
LINE
  8
_0-1_
  6
CONTINUOUS
 62
    7
 10
-462.903597085858
 20
-731.06240514395017
 11
-752.94294281371538
 21
-731.06240514395017
  0
LINE
  8
_0-1_
  6
CONTINUOUS
 62
    7
 10
336.10757220615682
 20
-1981.2729714963439
 11
396.40481313748978
 21
-1946.4603432132471
  0
LINE
  8
_0-1_
  6
CONTINUOUS
 62
    7
 10
316.40481313748967
 20
-1981.2729714963439
 11
336.10757220615682
 21
-1981.2729714963439
  0
LINE
  8
_0-1_
  6
CONTINUOUS
 62
    7
 10
-603.29794593117754
 20
-1981.2729714963448
 11
-663.59518686251045
 21
-1946.4603432132481
  0
LINE
  8
_0-1_
  6
CONTINUOUS
 62
    7
 10
-583.59518686251033
 20
-1981.2729714963448
 11
-603.29794593117754
 21
-1981.2729714963448
  0
LINE
  8
_0-1_
  6
CONTINUOUS
 62
    7
 10
-820.87102997380498
 20
1008.9375948560498
 11
-820.87102997380498
 21
987.56067879205057
  0
LINE
  8
_0-1_
  6
CONTINUOUS
 62
    7
 10
-813.7973702774849
 20
987.56067879205057
 11
-813.7973702774849
 21
959.0563567685507
  0
LINE
  8
_0-1_
  6
CONTINUOUS
 62
    7
 10
-803.18688073301155
 20
959.0563567685507
 11
-803.18688073301155
 21
933.93843860605239
  0
LINE
  8
_0-1_
  6
CONTINUOUS
 62
    7
 10
-725.3713609338356
 20
701.6816946590211
 11
-725.3713609338356
 21
677.39954039455142
  0
LINE
  8
_0-1_
  6
CONTINUOUS
 62
    7
 10
-722.15476800755096
 20
701.6816946590211
 11
-803.18688073301155
 21
933.93843860605239
  0
LINE
  8
_0-1_
  6
CONTINUOUS
 62
    7
 10
-813.7973702774849
 20
959.0563567685507
 11
1048.4048131374896
 21
959.0563567685507
  0
LINE
  8
_0-1_
  6
CENTER2
 62
    4
 10
-822.17918796696949
 20
1008.9375948560498
 11
1048.4048131374896
 21
1008.9375948560498
  0
LINE
  8
_0-1_
  6
CONTINUOUS
 62
    7
 10
-820.87102997380498
 20
1008.9375948560498
 11
1048.4048131374896
 21
1008.9375948560498
  0
LINE
  8
_0-1_
  6
CONTINUOUS
 62
    7
 10
1048.4048131374896
 20
987.56067879205057
 11
-820.87102997380498
 21
987.56067879205057
  0
LINE
  8
_0-1_
  6
CONTINUOUS
 62
    7
 10
458.18098720881494
 20
701.6816946590211
 11
-725.3713609338356
 21
701.6816946590211
  0
LINE
  8
_0-1_
  6
CONTINUOUS
 62
    7
 10
458.18098720881494
 20
701.6816946590211
 11
458.18098720881494
 21
677.39954039455142
  0
LINE
  8
_0-1_
  6
CONTINUOUS
 62
    7
 10
-725.3713609338356
 20
677.39954039455142
 11
458.18098720881494
 21
677.39954039455142
  0
LINE
  8
_0-1_
  6
CONTINUOUS
 62
    7
 10
1048.4048131374896
 20
1008.9375948560498
 11
1048.4048131374896
 21
777.16555111255218
  0
LINE
  8
_0-1_
  6
CONTINUOUS
 62
    7
 10
-583.59518686251033
 20
959.0563567685507
 11
-583.59518686251033
 21
701.6816946590211
  0
LINE
  8
_0-1_
  6
CONTINUOUS
 62
    7
 10
316.40481313748967
 20
959.0563567685507
 11
316.40481313748967
 21
705.13964965889045
  0
LINE
  8
_0-1_
  6
CONTINUOUS
 62
    7
 10
-433.59518686251033
 20
959.0563567685507
 11
-433.59518686251033
 21
701.6816946590211
  0
LINE
  8
_0-1_
  6
CONTINUOUS
 62
    7
 10
166.40481313748964
 20
959.0563567685507
 11
166.40481313748964
 21
705.13964965889045
  0
LINE
  8
_0-1_
  6
CONTINUOUS
 62
    7
 10
-208.59518686251036
 20
959.0563567685507
 11
-208.59518686251036
 21
701.68169465902156
  0
LINE
  8
_0-1_
  6
CONTINUOUS
 62
    7
 10
-58.59518686251036
 20
959.0563567685507
 11
-58.59518686251036
 21
701.68169465902156
  0
LINE
  8
_0-1_
  6
CONTINUOUS
 62
    7
 10
-236.53245176454149
 20
702.3410430740521
 11
-258.00524079297577
 21
868.14080206269409
  0
LINE
  8
_0-1_
  6
CONTINUOUS
 62
    7
 10
-258.00524079297577
 20
868.14080206269409
 11
-266.5267174023711
 21
933.93843860605239
  0
LINE
  8
_0-1_
  6
CONTINUOUS
 62
    7
 10
-266.5267174023711
 20
933.93843860605239
 11
-266.5267174023711
 21
959.0563567685507
  0
LINE
  8
_0-1_
  6
CONTINUOUS
 62
    7
 10
-248.53245176454166
 20
702.3410430740521
 11
-270.00524079297588
 21
868.14080206269409
  0
LINE
  8
_0-1_
  6
CONTINUOUS
 62
    7
 10
-270.00524079297588
 20
868.14080206269409
 11
-278.52671740237128
 21
933.93843860605239
  0
LINE
  8
_0-1_
  6
CONTINUOUS
 62
    7
 10
-278.52671740237128
 20
933.93843860605239
 11
-278.52671740237128
 21
959.0563567685507
  0
LINE
  8
_0-1_
  6
CONTINUOUS
 62
    7
 10
-30.657921960479229
 20
702.3410430740521
 11
-9.1851329320449793
 21
868.14080206269409
  0
LINE
  8
_0-1_
  6
CONTINUOUS
 62
    7
 10
-9.1851329320449793
 20
868.14080206269409
 11
-0.663656322649615
 21
933.93843860605239
  0
LINE
  8
_0-1_
  6
CONTINUOUS
 62
    7
 10
-0.663656322649615
 20
933.93843860605239
 11
-0.663656322649615
 21
959.0563567685507
  0
LINE
  8
_0-1_
  6
CONTINUOUS
 62
    7
 10
-18.657921960479058
 20
702.3410430740521
 11
2.8148670679551913
 21
868.14080206269409
  0
LINE
  8
_0-1_
  6
CONTINUOUS
 62
    7
 10
2.8148670679551913
 20
868.14080206269409
 11
11.336343677350555
 21
933.93843860605239
  0
LINE
  8
_0-1_
  6
CONTINUOUS
 62
    7
 10
11.336343677350555
 20
933.93843860605239
 11
11.336343677350555
 21
959.0563567685507
  0
LINE
  8
_0-1_
  6
CONTINUOUS
 62
    7
 10
435.50907888298252
 20
702.3410430740521
 11
435.50907888298252
 21
777.16555111255218
  0
LINE
  8
_0-1_
  6
CONTINUOUS
 62
    7
 10
-1081.8891712512134
 20
581.19634902055259
 11
-583.59518686251033
 21
581.19634902055259
  0
LINE
  8
_0-1_
  6
CONTINUOUS
 62
    7
 10
-1081.8891712512134
 20
677.39954039455142
 11
-583.59518686251033
 21
677.39954039455142
  0
LINE
  8
_0-1_
  6
CONTINUOUS
 62
    7
 10
-1081.8891712512134
 20
581.19634902055259
 11
-1081.8891712512134
 21
677.39954039455142
  0
LINE
  8
_0-1_
  6
CONTINUOUS
 62
    7
 10
-685.7379125590212
 20
-2051.0624051439499
 11
-685.7379125590212
 21
-2039.0624051439499
  0
LINE
  8
_0-1_
  6
CONTINUOUS
 62
    7
 10
-685.7379125590212
 20
-2039.0624051439499
 11
418.54753883400053
 21
-2039.0624051439499
  0
LINE
  8
_0-1_
  6
CONTINUOUS
 62
    7
 10
418.54753883400053
 20
-2051.0624051439499
 11
418.54753883400053
 21
-2039.0624051439499
  0
LINE
  8
_0-1_
  6
CONTINUOUS
 62
    7
 10
-685.7379125590212
 20
-2051.0624051439499
 11
418.54753883400053
 21
-2051.0624051439499
  0
LINE
  8
_0-1_
  6
CONTINUOUS
 62
    7
 10
316.40481313748967
 20
75.249959337395183
 11
1048.4048131374896
 21
75.249959337395183
  0
LINE
  8
_0-1_
  6
CONTINUOUS
 62
    7
 10
1048.4048131374896
 20
175.01594162912681
 11
1048.4048131374896
 21
75.249959337395183
  0
LINE
  8
_0-1_
  6
CONTINUOUS
 62
    7
 10
316.40481313748967
 20
175.01594162912681
 11
1048.4048131374896
 21
175.01594162912681
  0
LINE
  8
_0-1_
  6
CONTINUOUS
 62
    7
 10
318.78667637416856
 20
777.16555111255218
 11
580.53406852280079
 21
777.16555111255218
  0
LINE
  8
_0-1_
  6
CONTINUOUS
 62
    7
 10
580.53406852280079
 20
777.16555111255218
 11
1048.4048131374896
 21
777.16555111255218
  0
LINE
  8
_0-1_
  6
CONTINUOUS
 62
    7
 10
580.01421022213378
 20
777.16555111255218
 11
580.01421022213378
 21
720.15690706555063
  0
LINE
  8
_0-1_
  6
CONTINUOUS
 62
    7
 10
597.70011384281759
 20
705.9038624180514
 11
597.70011384281759
 21
720.15690706555063
  0
LINE
  8
_0-1_
  6
CONTINUOUS
 62
    7
 10
597.70011384281759
 20
673.83672105055041
 11
604.7998106043442
 21
666.73702428902379
  0
LINE
  8
_0-1_
  6
CONTINUOUS
 62
    7
 10
597.70011384281759
 20
698.77822373005097
 11
604.82575253081791
 21
705.9038624180514
  0
LINE
  8
_0-1_
  6
CONTINUOUS
 62
    7
 10
597.70011384281759
 20
698.77822373005097
 11
597.70011384281759
 21
673.83672105055041
  0
LINE
  8
_0-1_
  6
CONTINUOUS
 62
    7
 10
608.31060338729935
 20
666.711082362551
 11
611.86133874171924
 21
663.16034700813111
  0
LINE
  8
_0-1_
  6
CONTINUOUS
 62
    7
 10
611.86133874171924
 20
663.16034700813111
 11
611.86133874171924
 21
638.20676033905011
  0
LINE
  8
_0-1_
  6
CONTINUOUS
 62
    7
 10
608.31060338729935
 20
602.57503235605122
 11
608.31060338729935
 21
531.31511093305244
  0
LINE
  8
_0-1_
  6
CONTINUOUS
 62
    7
 10
633.07016670430414
 20
492.12056360604919
 11
633.07016670430414
 21
524.18770497355104
  0
LINE
  8
_0-1_
  6
CONTINUOUS
 62
    7
 10
608.31060338729935
 20
531.31511093305244
 11
618.92109293178032
 21
524.18770497355104
  0
LINE
  8
_0-1_
  6
CONTINUOUS
 62
    7
 10
633.07016670430414
 20
492.12056360604919
 11
647.217486096946
 21
481.43210557405297
  0
LINE
  8
_0-1_
  6
CONTINUOUS
 62
    7
 10
622.45792277994133
 20
638.20676033905011
 11
622.45792277994133
 21
602.57503235605122
  0
LINE
  8
_0-1_
  6
CONTINUOUS
 62
    7
 10
647.217486096946
 20
481.43210557405297
 11
647.217486096946
 21
232.01884605054971
  0
LINE
  8
_0-1_
  6
CONTINUOUS
 62
    7
 10
633.07016670430414
 20
203.51452402704808
 11
633.07016670430414
 21
175.01594162912681
  0
LINE
  8
_0-1_
  6
CONTINUOUS
 62
    7
 10
650.70722274904324
 20
232.01884605054971
 11
650.70722274904324
 21
203.51452402704808
  0
LINE
  8
_0-1_
  6
CONTINUOUS
 62
    7
 10
679.05246349015351
 20
1008.7629466445526
 11
679.05246349015351
 21
1030.1416299800512
  0
LINE
  8
_0-1_
  6
CONTINUOUS
 62
    7
 10
625.99650700798406
 20
1030.1416299800512
 11
625.99650700798406
 21
1133.4686927705523
  0
LINE
  8
_0-1_
  6
CONTINUOUS
 62
    7
 10
625.99650700798406
 20
1133.4686927705523
 11
891.27453503894628
 21
1133.4686927705523
  0
LINE
  8
_0-1_
  6
CONTINUOUS
 62
    7
 10
940.79541605284533
 20
777.16555111255218
 11
940.79541605284533
 21
720.15690706555063
  0
LINE
  8
_0-1_
  6
CONTINUOUS
 62
    7
 10
923.10951243216152
 20
705.9038624180514
 11
923.10951243216152
 21
720.15690706555063
  0
LINE
  8
_0-1_
  6
CONTINUOUS
 62
    7
 10
923.10951243216152
 20
673.83672105055041
 11
916.00981567063491
 21
666.73702428902379
  0
LINE
  8
_0-1_
  6
CONTINUOUS
 62
    7
 10
923.10951243216152
 20
698.77822373005097
 11
915.9838737441612
 21
705.9038624180514
  0
LINE
  8
_0-1_
  6
CONTINUOUS
 62
    7
 10
923.10951243216152
 20
698.77822373005097
 11
923.10951243216152
 21
673.83672105055041
  0
LINE
  8
_0-1_
  6
CONTINUOUS
 62
    7
 10
916.03585273584054
 20
666.711082362551
 11
912.49902288767976
 21
666.711082362551
  0
LINE
  8
_0-1_
  6
CONTINUOUS
 62
    7
 10
912.49902288767976
 20
666.711082362551
 11
908.94828753325987
 21
663.16034700813111
  0
LINE
  8
_0-1_
  6
CONTINUOUS
 62
    7
 10
908.94828753325987
 20
663.16034700813111
 11
908.94828753325987
 21
638.20676033905011
  0
LINE
  8
_0-1_
  6
CONTINUOUS
 62
    7
 10
912.49902288767976
 20
602.57503235605122
 11
912.49902288767976
 21
531.31511093305244
  0
LINE
  8
_0-1_
  6
CONTINUOUS
 62
    7
 10
887.73945957067497
 20
492.12056360604919
 11
887.73945957067497
 21
524.18770497355104
  0
LINE
  8
_0-1_
  6
CONTINUOUS
 62
    7
 10
912.49902288767976
 20
531.31511093305244
 11
901.88853334319879
 21
524.18770497355104
  0
LINE
  8
_0-1_
  6
CONTINUOUS
 62
    7
 10
887.73945957067497
 20
492.12056360604919
 11
873.59214017803311
 21
481.43210557405297
  0
LINE
  8
_0-1_
  6
CONTINUOUS
 62
    7
 10
898.35170349503778
 20
638.20676033905011
 11
898.35170349503778
 21
602.57503235605122
  0
LINE
  8
_0-1_
  6
CONTINUOUS
 62
    7
 10
873.59214017803311
 20
481.43210557405297
 11
873.59214017803311
 21
232.01884605054971
  0
LINE
  8
_0-1_
  6
CONTINUOUS
 62
    7
 10
887.73945957067497
 20
203.51452402704808
 11
887.73945957067497
 21
175.01594162912681
  0
LINE
  8
_0-1_
  6
CONTINUOUS
 62
    7
 10
870.10240352593587
 20
232.01884605054971
 11
870.10240352593587
 21
203.51452402704808
  0
LINE
  8
_0-1_
  6
CONTINUOUS
 62
    7
 10
841.7571627848256
 20
1008.7629466445526
 11
841.7571627848256
 21
1030.1416299800512
  0
LINE
  8
_0-1_
  6
CONTINUOUS
 62
    7
 10
894.81311926699505
 20
1030.1416299800512
 11
894.81311926699505
 21
1133.4686927705523
  0
LINE
  8
_0-1_
  6
CONTINUOUS
 62
    7
 10
625.99650700798406
 20
1030.1416299800512
 11
894.81311926699505
 21
1030.1416299800512
  0
LINE
  8
_0-1_
  6
CONTINUOUS
 62
    7
 10
633.07016670430414
 20
203.51452402704808
 11
887.73945957067497
 21
203.51452402704808
  0
LINE
  8
_0-1_
  6
CONTINUOUS
 62
    7
 10
647.217486096946
 20
232.01884605054971
 11
873.59214017803311
 21
232.01884605054971
  0
LINE
  8
_0-1_
  6
CONTINUOUS
 62
    7
 10
647.217486096946
 20
481.43210557405297
 11
873.59214017803311
 21
481.43210557405297
  0
LINE
  8
_0-1_
  6
CONTINUOUS
 62
    7
 10
618.92109293178032
 20
524.18770497355104
 11
901.88853334319879
 21
524.18770497355104
  0
LINE
  8
_0-1_
  6
CONTINUOUS
 62
    7
 10
608.31060338729935
 20
602.57503235605122
 11
912.49902288767976
 21
602.57503235605122
  0
LINE
  8
_0-1_
  6
CONTINUOUS
 62
    7
 10
611.84743323545945
 20
638.20676033905011
 11
908.94828753325987
 21
638.20676033905011
  0
LINE
  8
_0-1_
  6
CONTINUOUS
 62
    7
 10
611.86133874171924
 20
663.16034700813111
 11
908.94828753325987
 21
663.16034700813111
  0
LINE
  8
_0-1_
  6
CONTINUOUS
 62
    7
 10
604.77377353913857
 20
666.711082362551
 11
912.49902288767976
 21
666.711082362551
  0
LINE
  8
_0-1_
  6
CONTINUOUS
 62
    7
 10
597.70011384281759
 20
705.9038624180514
 11
923.10951243216152
 21
705.9038624180514
  0
LINE
  8
_0-1_
  6
CONTINUOUS
 62
    7
 10
580.01421022213378
 20
720.15690706555063
 11
940.79541605284533
 21
720.15690706555063
  0
POINT
  8
_0-1_
 62
    7
 10
-133.59518686251036
 20
-2051.0624051439499
  0
POINT
  8
_0-1_
 62
    7
 10
-133.59518686251036
 20
1888.9375948560498
  0
LINE
  8
_0-1_
  6
CONTINUOUS
 62
    7
 10
-1107.6489393405584
 20
374.54045616805018
 11
-1083.5951868625114
 21
374.54045616805018
  0
LINE
  8
_0-1_
  6
CONTINUOUS
 62
    7
 10
-1111.8915800276777
 20
378.78309685516967
 11
-1107.6489393405584
 21
374.54045616805018
  0
LINE
  8
_0-1_
  6
CONTINUOUS
 62
    7
 10
-1111.8915800276777
 20
405.9277761924335
 11
-1111.8915800276777
 21
378.78309685516967
  0
LINE
  8
_0-1_
  6
CONTINUOUS
 62
    7
 10
-1107.6489393405584
 20
410.17041687955299
 11
-1083.5951868625114
 21
410.17041687955299
  0
LINE
  8
_0-1_
  6
CONTINUOUS
 62
    7
 10
-1111.8915800276777
 20
405.9277761924335
 11
-1107.6489393405584
 21
410.17041687955299
  0
LINE
  8
_0-1_
  6
CONTINUOUS
 62
    7
 10
-1117.8915800276775
 20
405.9277761924335
 11
-1117.8915800276775
 21
378.78309685516967
  0
LINE
  8
_0-1_
  6
CONTINUOUS
 62
    7
 10
-1111.8915800276777
 20
405.9277761924335
 11
-1117.8915800276775
 21
405.9277761924335
  0
LINE
  8
_0-1_
  6
CONTINUOUS
 62
    7
 10
-1111.8915800276777
 20
378.78309685516967
 11
-1117.8915800276775
 21
378.78309685516967
  0
LINE
  8
_0-1_
  6
CONTINUOUS
 62
    7
 10
-1115.4284098758378
 20
89.497235933050945
 11
-1083.5951868625114
 21
89.497235933050945
  0
LINE
  8
_0-1_
  6
CONTINUOUS
 62
    7
 10
-1115.4284098758378
 20
89.497235933050945
 11
-1115.4284098758378
 21
-2.3272837075245434
  0
LINE
  8
_0-1_
  6
CONTINUOUS
 62
    7
 10
-1115.4284098758378
 20
-2.3272837075245434
 11
-1104.9172734709118
 21
-2.3272837075245434
  0
LINE
  8
_0-1_
  6
CONTINUOUS
 62
    7
 10
-1104.9172734709118
 20
-2.3272837075245434
 11
-1094.2056764069939
 21
53.865507950052063
  0
LINE
  8
_0-1_
  6
CONTINUOUS
 62
    7
 10
-1094.2056764069939
 20
53.865507950052063
 11
-1083.5951868625114
 21
53.865507950052063
  0
LINE
  8
_0-1_
  6
CONTINUOUS
 62
    7
 10
-583.59518686251033
 20
549.1292076530508
 11
-1083.5951868625114
 21
549.1292076530508
  0
LINE
  8
_0-1_
  6
CONTINUOUS
 62
    7
 10
-1083.5951868625114
 20
549.1292076530508
 11
-1083.5951868625114
 21
-650.8707923469492
  0
LINE
  8
_0-1_
  6
CONTINUOUS
 62
    7
 10
-583.59518686251033
 20
-650.8707923469492
 11
-1083.5951868625114
 21
-650.8707923469492
  0
LINE
  8
_0-1_
  6
CONTINUOUS
 62
    7
 10
-1030.539230380341
 20
-650.8707923469492
 11
-1030.539230380341
 21
549.1292076530508
  0
LINE
  8
_0-1_
  6
CONTINUOUS
 62
    7
 10
-1107.6489393405584
 20
278.80566099306469
 11
-1083.5951868625114
 21
278.80566099306469
  0
LINE
  8
_0-1_
  6
CONTINUOUS
 62
    7
 10
-1111.8915800276777
 20
283.04830168018418
 11
-1107.6489393405584
 21
278.80566099306469
  0
LINE
  8
_0-1_
  6
CONTINUOUS
 62
    7
 10
-1111.8915800276777
 20
310.19298101744801
 11
-1111.8915800276777
 21
283.04830168018418
  0
LINE
  8
_0-1_
  6
CONTINUOUS
 62
    7
 10
-1107.6489393405584
 20
314.4356217045675
 11
-1083.5951868625114
 21
314.4356217045675
  0
LINE
  8
_0-1_
  6
CONTINUOUS
 62
    7
 10
-1111.8915800276777
 20
310.19298101744801
 11
-1107.6489393405584
 21
314.4356217045675
  0
LINE
  8
_0-1_
  6
CONTINUOUS
 62
    7
 10
-1117.8915800276775
 20
310.19298101744801
 11
-1117.8915800276775
 21
283.04830168018418
  0
LINE
  8
_0-1_
  6
CONTINUOUS
 62
    7
 10
-1111.8915800276777
 20
310.19298101744801
 11
-1117.8915800276775
 21
310.19298101744801
  0
LINE
  8
_0-1_
  6
CONTINUOUS
 62
    7
 10
-1111.8915800276777
 20
283.04830168018418
 11
-1117.8915800276775
 21
283.04830168018418
  0
LINE
  8
_0-1_
  6
CONTINUOUS
 62
    7
 10
316.40481313748967
 20
-1032.7034930673849
 11
336.10757220615682
 21
-1032.7034930673849
  0
LINE
  8
_0-1_
  6
CONTINUOUS
 62
    7
 10
-583.59518686251033
 20
-1032.7034930673858
 11
-603.29794593117754
 21
-1032.7034930673858
  0
LINE
  8
_0-1_
  6
CONTINUOUS
 62
    7
 10
-208.23605859937672
 20
-951.86962508845284
 11
-222.38337799201005
 21
-951.86962508845284
  0
LINE
  8
_0-1_
  6
CONTINUOUS
 62
    7
 10
166.40481313748964
 20
-991.06240514394983
 11
166.40481313748964
 21
-1072.1667189793777
  0
LINE
  8
_0-1_
  6
CONTINUOUS
 62
    7
 10
-1092.305322918249
 20
-887.73357508194977
 11
-656.00399212835441
 21
-887.73357508194977
  0
LINE
  8
_0-1_
  6
CONTINUOUS
 62
    7
 10
-685.7379125590212
 20
-802.1423104111775
 11
-1092.4996607956944
 21
-802.1423104111775
  0
LINE
  8
_0-1_
  6
CONTINUOUS
 62
    7
 10
-1092.305322918249
 20
-802.1423104111775
 11
-1092.305322918249
 21
-887.73357508194977
  0
LINE
  8
_0-1_
  6
CONTINUOUS
 62
    7
 10
-462.903597085858
 20
-731.06240514395017
 11
195.71322336083725
 21
-731.06240514395017
  0
LINE
  8
_0-1_
  6
CONTINUOUS
 62
    7
 10
195.71322336083725
 20
-713.06240514395029
 11
195.71322336083725
 21
-731.06240514395017
  0
LINE
  8
_0-1_
  6
CONTINUOUS
 62
    7
 10
195.71322336083725
 20
-731.06240514395017
 11
485.7525690886946
 21
-731.06240514395017
  0
LINE
  8
_0-1_
  6
CONTINUOUS
 62
    7
 10
195.71322336083725
 20
-713.06240514395029
 11
485.7525690886946
 21
-713.06240514395029
  0
LINE
  8
_0-1_
  6
CONTINUOUS
 62
    7
 10
418.54753883400053
 20
-791.37143392617645
 11
418.54753883400053
 21
-731.06240514395017
  0
LINE
  8
_0-1_
  6
CONTINUOUS
 62
    7
 10
485.7525690886946
 20
-713.06240514395029
 11
485.7525690886946
 21
-731.06240514395017
  0
LINE
  8
_0-1_
  6
CONTINUOUS
 62
    7
 10
-462.903597085858
 20
-713.06240514395029
 11
-462.903597085858
 21
-731.06240514395017
  0
LINE
  8
_0-1_
  6
CONTINUOUS
 62
    7
 10
-685.7379125590212
 20
-791.37143392617645
 11
-685.7379125590212
 21
-731.06240514395017
  0
LINE
  8
_0-1_
  6
CONTINUOUS
 62
    7
 10
-752.94294281371538
 20
-713.06240514395029
 11
-752.94294281371538
 21
-731.06240514395017
  0
LINE
  8
_0-1_
  6
CONTINUOUS
 62
    7
 10
-583.59518686251033
 20
-991.06240514394983
 11
-615.67266916247536
 21
-991.06240514394983
  0
LINE
  8
_0-1_
  6
CONTINUOUS
 62
    7
 10
-615.67266916247536
 20
-991.06240514394983
 11
-685.7379125590212
 21
-789.37447752069943
  0
LINE
  8
_0-1_
  6
CONTINUOUS
 62
    7
 10
-603.29794593117754
 20
-1032.7034930673858
 11
-663.59518686251045
 21
-1067.5161213504825
  0
LINE
  8
_0-1_
  6
CONTINUOUS
 62
    7
 10
-663.59518686251045
 20
-1067.5161213504825
 11
-663.59518686251045
 21
-1946.4603432132481
  0
LINE
  8
_0-1_
  6
CONTINUOUS
 62
    7
 10
336.10757220615682
 20
-1032.7034930673849
 11
396.40481313748978
 21
-1067.5161213504816
  0
LINE
  8
_0-1_
  6
CONTINUOUS
 62
    7
 10
396.40481313748978
 20
-1067.5161213504816
 11
396.40481313748978
 21
-1946.4603432132471
  0
LINE
  8
_0-4_
  6
CONTINUOUS
 62
    7
 10
-752.94294281371538
 20
-713.06240514395029
 11
-462.903597085858
 21
-713.06240514395029
  0
ARC
  8
_0-1_
  6
CONTINUOUS
 62
    7
 10
-1917.6128900766589
 20
890.30880140304907
 40
24
 50
0
 51
180
  0
LINE
  8
_0-1_
  6
CONTINUOUS
 62
    7
 10
-1893.6128900766585
 20
890.76147136322311
 11
-1893.6128900766585
 21
-609.73357508195363
  0
LINE
  8
_0-1_
  6
CONTINUOUS
 62
    7
 10
-1941.6128900766591
 20
891.20007046516616
 11
-1941.6128900766591
 21
-609.73357508195363
  0
LINE
  8
_0-1_
  6
CONTINUOUS
 62
    7
 10
-1963.5951868625091
 20
-609.73357508195363
 11
-1963.5951868625091
 21
-713.06240514395029
  0
LINE
  8
_0-1_
  6
CONTINUOUS
 62
    7
 10
-586.70141367088422
 20
-713.06240514395029
 11
-1963.5951868625091
 21
-713.06240514395029
  0
LINE
  8
_0-1_
  6
CONTINUOUS
 62
    7
 10
-586.70141367088422
 20
-609.73357508195363
 11
-1963.5951868625091
 21
-609.73357508195363
  0
LINE
  8
_0-1_
  6
CONTINUOUS
 62
    7
 10
319.51103994586344
 20
-609.73357508195363
 11
1696.4048131374909
 21
-609.73357508195363
  0
LINE
  8
_0-1_
  6
CONTINUOUS
 62
    7
 10
319.51103994586344
 20
-713.06240514395029
 11
1696.4048131374909
 21
-713.06240514395029
  0
LINE
  8
_0-1_
  6
CONTINUOUS
 62
    7
 10
1696.4048131374909
 20
-609.73357508195363
 11
1696.4048131374909
 21
-713.06240514395029
  0
LINE
  8
_0-1_
  6
CONTINUOUS
 62
    7
 10
1626.4225163516403
 20
890.76147136322413
 11
1626.4225163516403
 21
-609.73357508195261
  0
LINE
  8
_0-1_
  6
CONTINUOUS
 62
    7
 10
1674.422516351641
 20
891.2000704651673
 11
1674.422516351641
 21
-609.73357508195261
  0
ARC
  8
_0-1_
  6
CONTINUOUS
 62
    7
 10
1650.4225163516408
 20
890.3088014030501
 40
24
 50
0
 51
180
  0
LINE
  8
_0-1_
  6
CONTINUOUS
 62
    7
 10
-583.59518686251033
 20
677.39954039455142
 11
-583.59518686251033
 21
-713.06240514395029
  0
LINE
  8
_0-1_
  6
CONTINUOUS
 62
    7
 10
-500.28870004953995
 20
59.557936093743429
 11
-493.86116087569519
 21
51.897208963196846
  0
LINE
  8
_0-1_
  6
CONTINUOUS
 62
    7
 10
227.27857572801673
 20
670.00484106451586
 11
-500.28870004953995
 21
59.557936093743429
  0
LINE
  8
_0-1_
  6
CONTINUOUS
 62
    7
 10
227.27857572801673
 20
670.00484106451586
 11
233.70611490186144
 21
662.34411393396931
  0
LINE
  8
_0-1_
  6
CONTINUOUS
 62
    7
 10
233.70611490186144
 20
662.34411393396931
 11
-493.86116087569519
 21
51.897208963196846
  0
LINE
  8
_0-1_
  6
CONTINUOUS
 62
    7
 10
166.40481313748961
 20
488.39433986778602
 11
-433.59518686251033
 21
-15.020471623054981
  0
LINE
  8
_0-1_
  6
CONTINUOUS
 62
    7
 10
-500.28870004953995
 20
-99.074179911343236
 11
-493.86116087569519
 21
-91.413452780796661
  0
LINE
  8
_0-1_
  6
CONTINUOUS
 62
    7
 10
227.27857572801679
 20
-709.5210848821157
 11
-500.28870004953995
 21
-99.074179911343236
  0
LINE
  8
_0-1_
  6
CONTINUOUS
 62
    7
 10
227.27857572801679
 20
-709.5210848821157
 11
233.70611490186144
 21
-701.86035775156915
  0
LINE
  8
_0-1_
  6
CONTINUOUS
 62
    7
 10
233.70611490186144
 20
-701.86035775156915
 11
-493.86116087569519
 21
-91.413452780796661
  0
LINE
  8
_0-1_
  6
CONTINUOUS
 62
    7
 10
166.40481313748964
 20
-527.91058368538586
 11
-433.59518686251033
 21
-24.495772194544827
  0
LINE
  8
_0-1_
  6
CONTINUOUS
 62
    7
 10
166.40481313748964
 20
677.39954039455142
 11
166.40481313748964
 21
618.93025153243525
  0
LINE
  8
_0-1_
  6
CONTINUOUS
 62
    7
 10
-433.59518686251033
 20
677.39954039455142
 11
-433.59518686251033
 21
115.5154400415941
  0
LINE
  8
_0-1_
  6
CONTINUOUS
 62
    7
 10
-433.59518686251033
 20
102.46184887512914
 11
-433.59518686251033
 21
-141.97809269272889
  0
LINE
  8
_0-1_
  6
CONTINUOUS
 62
    7
 10
-433.59518686251033
 20
-155.031683859194
 11
-433.59518686251033
 21
-731.06240514395017
  0
LINE
  8
_0-1_
  6
CONTINUOUS
 62
    7
 10
166.40481313748964
 20
605.87666036597022
 11
166.40481313748964
 21
-645.39290418357018
  0
LINE
  8
_0-1_
  6
CONTINUOUS
 62
    7
 10
166.40481313748964
 20
-731.06240514395017
 11
166.40481313748964
 21
-658.44649535003487
  0
LINE
  8
_0-1_
  6
CONTINUOUS
 62
    7
 10
-529.5981703839692
 20
-1955.0537086017027
 11
-520.25618859475844
 21
-1962.585466447654
  0
LINE
  8
_0-1_
  6
CONTINUOUS
 62
    7
 10
-529.5981703839692
 20
-1955.0537086017027
 11
223.78608737838005
 21
-1020.5969509302612
  0
LINE
  8
_0-1_
  6
CONTINUOUS
 62
    7
 10
223.78608737838005
 20
-1020.5969509302612
 11
233.12806916759075
 21
-1028.1287087762123
  0
LINE
  8
_0-1_
  6
CONTINUOUS
 62
    7
 10
-520.25618859475844
 20
-1962.585466447654
 11
233.12806916759075
 21
-1028.1287087762123
  0
LINE
  8
_0-1_
  6
CONTINUOUS
 62
    7
 10
-430.71442232084064
 20
-1991.729054781852
 11
166.4048131374897
 21
-1251.0949109693408
  0
LINE
  8
_0-1_
  6
CONTINUOUS
 62
    7
 10
166.40481313748964
 20
-1110.8885977024256
 11
166.40481313748964
 21
-2039.0624051439499
  0
LINE
  8
_0-1_
  6
CONTINUOUS
 62
    7
 10
166.40481313748964
 20
-991.06240514394983
 11
166.40481313748964
 21
-1091.7695549842106
  0
LINE
  8
_0-1_
  6
CONTINUOUS
 62
    7
 10
-433.59518686251033
 20
-1855.0958847887541
 11
-433.59518686251033
 21
-2039.0624051439499
  0
LINE
  8
_0-1_
  6
CONTINUOUS
 62
    7
 10
-433.59518686251033
 20
-1726.7766086153731
 11
-433.59518686251033
 21
-1835.9768420705389
  0
LINE
  8
_0-1_
  6
CONTINUOUS
 62
    7
 10
-433.59518686251033
 20
-991.06240514394983
 11
-433.59518686251033
 21
-1835.9768420705386
  0
LINE
  8
_0-1_
  6
CONTINUOUS
 62
    7
 10
316.40481313748967
 20
677.39954039455142
 11
316.40481313748967
 21
-713.06240514395029
  0
LINE
  8
_0-1_
  6
CONTINUOUS
 62
    7
 10
-583.59518686251033
 20
-991.06240514394983
 11
348.48229543745458
 21
-991.06240514394983
  0
LINE
  8
_0-1_
  6
CONTINUOUS
 62
    7
 10
348.48229543745458
 20
-991.06240514394983
 11
418.54753883400053
 21
-789.37447752069943
  0
LINE
  8
_0-1_
  6
CONTINUOUS
 62
    7
 10
-583.59518686251033
 20
-731.06240514395017
 11
-583.59518686251033
 21
-2039.0624051439499
  0
LINE
  8
_0-1_
  6
CONTINUOUS
 62
    7
 10
316.40481313748967
 20
-731.06240514395017
 11
316.40481313748967
 21
-2039.0624051439499
  0
LINE
  8
_0-1_
  6
CONTINUOUS
 62
    7
 10
-222.38337799201005
 20
-809.26559651795083
 11
-222.38337799201005
 21
-951.86962508845284
  0
LINE
  8
_0-1_
  6
CONTINUOUS
 62
    7
 10
-222.38337799201005
 20
-809.26559651795083
 11
-208.23605859937672
 21
-809.26559651795083
  0
LINE
  8
_0-1_
  6
CONTINUOUS
 62
    7
 10
-208.23605859937672
 20
-809.26559651795083
 11
-208.23605859937672
 21
-951.86962508845284
  0
POINT
  8
_0-4_
 62
    7
 10
-133.59518686251036
 20
-862.08440072220719
  0
CIRCLE
  8
_0-4_
  6
CONTINUOUS
 62
    7
 10
-133.59518686251036
 20
-862.08440072220719
 40
36
  0
ENDBLK
  0
BLOCK
  2
-024-____立面1
 70
   64
 10
0
 20
0
 30
0
  0
INSERT
  2
-021-____下部立面
  8
_0-0_
 10
-3414.6958373862976
 20
-17.738731935642846
 41
1
 42
1
 50
0
  0
INSERT
  2
-019-____中間部立面
  8
_0-0_
 10
-484.98542689309249
 20
22.912283024824944
 41
1
 42
1
 50
0
  0
INSERT
  2
-020-____上部立面
  8
_0-0_
 10
3899.6812642793902
 20
-5.1735510891820979
 41
1
 42
1
 50
0
  0
ENDBLK
  0
BLOCK
  2
-025-____下部平面
 70
   64
 10
0
 20
0
 30
0
  0
LINE
  8
_0-4_
  6
CONTINUOUS
 62
    7
 10
-873.30902132474705
 20
166.0588121505665
 11
-873.30902132474705
 21
207.05881215056715
  0
LINE
  8
_0-4_
  6
CONTINUOUS
 62
    7
 10
-173.19654455565697
 20
207.05881215056715
 11
-873.30902132474705
 21
207.05881215056715
  0
LINE
  8
_0-4_
  6
CONTINUOUS
 62
    7
 10
-173.19654455565697
 20
207.05881215056715
 11
-43.196544555657113
 21
189.05881215056689
  0
LINE
  8
_0-4_
  6
CONTINUOUS
 62
    7
 10
-43.196544555657113
 20
166.0588121505665
 11
-873.30902132474705
 21
166.0588121505665
  0
LINE
  8
_0-4_
  6
CONTINUOUS
 62
    7
 10
-43.196544555657113
 20
166.0588121505665
 11
-43.196544555657113
 21
189.05881215056689
  0
LINE
  8
_0-4_
  6
CONTINUOUS
 62
    7
 10
-873.30902132474705
 20
-165.94118784943296
 11
-873.30902132474705
 21
-206.94118784943319
  0
LINE
  8
_0-4_
  6
CONTINUOUS
 62
    7
 10
-173.19654455565697
 20
-206.94118784943319
 11
-873.30902132474705
 21
-206.94118784943319
  0
LINE
  8
_0-4_
  6
CONTINUOUS
 62
    7
 10
-173.19654455565697
 20
-206.94118784943319
 11
-43.196544555657113
 21
-188.94118784943294
  0
LINE
  8
_0-4_
  6
CONTINUOUS
 62
    7
 10
-43.196544555657113
 20
-165.94118784943296
 11
-873.30902132474705
 21
-165.94118784943296
  0
LINE
  8
_0-4_
  6
CONTINUOUS
 62
    7
 10
-43.196544555657113
 20
-165.94118784943296
 11
-43.196544555657113
 21
-188.94118784943294
  0
LINE
  8
_0-4_
  6
CONTINUOUS
 62
    7
 10
713.69097867525272
 20
197.05881215056687
 11
-43.196544555657113
 21
197.05881215056687
  0
LINE
  8
_0-4_
  6
CONTINUOUS
 62
    7
 10
-43.196544555657113
 20
197.05881215056687
 11
-43.196544555657113
 21
189.05881215056689
  0
LINE
  8
_0-4_
  6
CONTINUOUS
 62
    7
 10
713.69097867525272
 20
-196.94118784943291
 11
-43.196544555657113
 21
-196.94118784943291
  0
LINE
  8
_0-4_
  6
CONTINUOUS
 62
    7
 10
-43.196544555657113
 20
-196.94118784943291
 11
-43.196544555657113
 21
-188.94118784943294
  0
LINE
  8
_0-4_
  6
CONTINUOUS
 62
    7
 10
658.69097867525284
 20
207.05881215056715
 11
658.69097867525284
 21
197.05881215056687
  0
LINE
  8
_0-4_
  6
CONTINUOUS
 62
    7
 10
658.69097867525284
 20
207.05881215056715
 11
694.69097867525295
 21
207.05881215056715
  0
LINE
  8
_0-4_
  6
CONTINUOUS
 62
    7
 10
694.69097867525295
 20
207.05881215056715
 11
694.69097867525295
 21
197.05881215056687
  0
LINE
  8
_0-4_
  6
CONTINUOUS
 62
    7
 10
658.69097867525284
 20
-196.94118784943291
 11
658.69097867525284
 21
-206.94118784943319
  0
LINE
  8
_0-4_
  6
CONTINUOUS
 62
    7
 10
658.69097867525284
 20
-206.94118784943319
 11
694.69097867525295
 21
-206.94118784943319
  0
LINE
  8
_0-4_
  6
CONTINUOUS
 62
    7
 10
694.69097867525295
 20
-196.94118784943291
 11
694.69097867525295
 21
-206.94118784943319
  0
LINE
  8
_0-4_
  6
CONTINUOUS
 62
    7
 10
-623.30902132474762
 20
-165.94118784943296
 11
-623.30902132474762
 21
166.0588121505665
  0
LINE
  8
_0-4_
  6
CENTER2
 62
    4
 10
-823.30902132474739
 20
207.05881215056715
 11
-823.30902132474739
 21
-206.94118784943319
  0
LINE
  8
_0-4_
  6
DASHED1
 62
    7
 10
-841.30902132474716
 20
207.05881215056715
 11
-841.30902132474716
 21
166.0588121505665
  0
LINE
  8
_0-4_
  6
DASHED1
 62
    7
 10
-805.3090213247475
 20
207.05881215056715
 11
-805.3090213247475
 21
166.0588121505665
  0
LINE
  8
_0-4_
  6
DASHED1
 62
    7
 10
-841.30902132474716
 20
-165.94118784943296
 11
-841.30902132474716
 21
-209.05842526984307
  0
LINE
  8
_0-4_
  6
DASHED1
 62
    7
 10
-805.3090213247475
 20
-165.94118784943296
 11
-805.3090213247475
 21
-209.05842526984307
  0
LINE
  8
_0-4_
  6
CONTINUOUS
 62
    7
 10
-623.30902132474762
 20
110.05881215056714
 11
676.69097867525261
 21
110.05881215056714
  0
LINE
  8
_0-4_
  6
CONTINUOUS
 62
    7
 10
-623.30902132474762
 20
-109.94118784943315
 11
676.69097867525261
 21
-109.94118784943315
  0
LINE
  8
_0-4_
  6
CONTINUOUS
 62
    7
 10
713.69097867525272
 20
175.05881215056684
 11
-43.196544555657113
 21
175.05881215056684
  0
LINE
  8
_0-4_
  6
CONTINUOUS
 62
    7
 10
713.69097867525272
 20
175.05881215056684
 11
713.69097867525272
 21
197.05881215056687
  0
LINE
  8
_0-4_
  6
CONTINUOUS
 62
    7
 10
713.69097867525272
 20
-174.94118784943288
 11
-43.196544555657113
 21
-174.94118784943288
  0
LINE
  8
_0-4_
  6
CONTINUOUS
 62
    7
 10
713.69097867525272
 20
-174.94118784943288
 11
713.69097867525272
 21
-196.94118784943291
  0
LINE
  8
_0-4_
  6
CONTINUOUS
 62
    7
 10
676.69097867525261
 20
-174.94118784943288
 11
676.69097867525261
 21
175.05881215056684
  0
LINE
  8
_0-4_
  6
CONTINUOUS
 62
    7
 10
694.69097867525295
 20
-174.94118784943288
 11
694.69097867525295
 21
175.05881215056684
  0
LINE
  8
_0-4_
  6
CONTINUOUS
 62
    7
 10
658.69097867525284
 20
-174.94118784943288
 11
658.69097867525284
 21
175.05881215056684
  0
LINE
  8
_0-4_
  6
CENTER2
 62
    4
 10
676.69097867525261
 20
0.0588121505669914
 11
-823.30902132474739
 21
0.0588121505669914
  0
ENDBLK
  0
BLOCK
  2
-026-____上部平面
 70
   64
 10
0
 20
0
 30
0
  0
LINE
  8
_0-4_
  6
CONTINUOUS
 62
    7
 10
-4260.4724580218008
 20
124.99670537156229
 11
-4260.4724580218008
 21
-125.003294628438
  0
LINE
  8
_0-4_
  6
CONTINUOUS
 62
    7
 10
-4232.4724580218008
 20
-125.003294628438
 11
-4260.4724580218008
 21
-125.003294628438
  0
LINE
  8
_0-4_
  6
CONTINUOUS
 62
    7
 10
-4232.4724580218008
 20
124.99670537156229
 11
-4260.4724580218008
 21
124.99670537156229
  0
LINE
  8
_0-4_
  6
CONTINUOUS
 62
    7
 10
-4232.4724580218008
 20
124.99670537156229
 11
-4232.4724580218008
 21
-125.003294628438
  0
LINE
  8
_0-4_
  6
CONTINUOUS
 62
    7
 10
-3253.4724580218003
 20
124.99670537156229
 11
-4232.4724580218008
 21
124.99670537156229
  0
LINE
  8
_0-4_
  6
CONTINUOUS
 62
    7
 10
-3253.4724580218003
 20
124.99670537156229
 11
-3088.4724580218008
 21
104.99670537156214
  0
LINE
  8
_0-4_
  6
CONTINUOUS
 62
    7
 10
-3253.4724580218003
 20
-125.003294628438
 11
-3088.4724580218008
 21
-105.00329462843786
  0
LINE
  8
_0-4_
  6
CONTINUOUS
 62
    7
 10
-3253.4724580218003
 20
-125.003294628438
 11
-4232.4724580218008
 21
-125.003294628438
  0
LINE
  8
_0-4_
  6
CONTINUOUS
 62
    7
 10
-3088.4724580218008
 20
-105.00329462843786
 11
-3088.4724580218008
 21
-75.003294628437857
  0
LINE
  8
_0-4_
  6
CONTINUOUS
 62
    7
 10
-3088.4724580218008
 20
74.996705371562143
 11
-3088.4724580218008
 21
104.99670537156214
  0
LINE
  8
_0-4_
  6
CONTINUOUS
 62
    7
 10
-4132.4724580217999
 20
41.496705371561916
 11
-4132.4724580217999
 21
60.496705371562115
  0
LINE
  8
_0-4_
  6
CONTINUOUS
 62
    7
 10
-4132.4724580217999
 20
60.496705371562115
 11
-4232.4724580218008
 21
60.496705371562115
  0
LINE
  8
_0-4_
  6
CONTINUOUS
 62
    7
 10
-4132.4724580217999
 20
41.496705371561916
 11
-4232.4724580218008
 21
41.496705371561916
  0
LINE
  8
_0-4_
  6
CONTINUOUS
 62
    7
 10
-4132.4724580217999
 20
-41.503294628437629
 11
-4132.4724580217999
 21
-60.503294628437828
  0
LINE
  8
_0-4_
  6
CONTINUOUS
 62
    7
 10
-4132.4724580217999
 20
-60.503294628437828
 11
-4232.4724580218008
 21
-60.503294628437828
  0
LINE
  8
_0-4_
  6
CONTINUOUS
 62
    7
 10
-4132.4724580217999
 20
-41.503294628437629
 11
-4232.4724580218008
 21
-41.503294628437629
  0
LINE
  8
_0-4_
  6
CONTINUOUS
 62
    7
 10
-2491.5894780817985
 20
-75.003294628437857
 11
-2491.5894780817985
 21
-69.003294628438198
  0
LINE
  8
_0-4_
  6
CONTINUOUS
 62
    7
 10
-2491.5894780817985
 20
68.996705371562058
 11
-2491.5894780817985
 21
74.996705371562143
  0
LINE
  8
_0-4_
  6
CONTINUOUS
 62
    7
 10
-2441.5894780817989
 20
-75.003294628437857
 11
-2441.5894780817989
 21
-69.003294628438198
  0
LINE
  8
_0-4_
  6
CONTINUOUS
 62
    7
 10
-2441.5894780817989
 20
68.996705371562058
 11
-2441.5894780817989
 21
74.996705371562143
  0
LINE
  8
_0-4_
  6
CONTINUOUS
 62
    7
 10
-2441.589478081798
 20
68.996705371562058
 11
-2491.5894780817985
 21
68.996705371562058
  0
LINE
  8
_0-4_
  6
CONTINUOUS
 62
    7
 10
-2441.589478081798
 20
-69.003294628438198
 11
-2491.5894780817985
 21
-69.003294628438198
  0
LINE
  8
_0-4_
  6
CONTINUOUS
 62
    7
 10
-4260.4724580218008
 20
124.99670537156229
 11
-4260.4724580218008
 21
-125.003294628438
  0
LINE
  8
_0-4_
  6
CONTINUOUS
 62
    7
 10
406.32910729713927
 20
-121.50329462843564
 11
656.32910729714035
 21
-121.50329462843564
  0
LINE
  8
_0-4_
  6
CONTINUOUS
 62
    7
 10
406.32910729713927
 20
-98.503294628436095
 11
656.32910729714035
 21
-98.503294628436095
  0
LINE
  8
_0-4_
  6
CONTINUOUS
 62
    7
 10
406.32910729713927
 20
-11.503294628439331
 11
656.32910729714035
 21
-11.503294628439331
  0
LINE
  8
_0-4_
  6
CONTINUOUS
 62
    7
 10
406.32910729713927
 20
11.496705371560214
 11
656.32910729714035
 21
11.496705371560214
  0
LINE
  8
_0-4_
  6
CONTINUOUS
 62
    7
 10
406.32910729713927
 20
98.496705371560381
 11
656.32910729714035
 21
98.496705371560381
  0
LINE
  8
_0-4_
  6
CONTINUOUS
 62
    7
 10
406.32910729713927
 20
121.49670537155993
 11
656.32910729714035
 21
121.49670537155993
  0
LINE
  8
_0-4_
  6
CONTINUOUS
 62
    7
 10
406.32910729713927
 20
-127.50329462843615
 11
656.32910729714035
 21
-127.50329462843615
  0
LINE
  8
_0-4_
  6
CONTINUOUS
 62
    7
 10
406.32910729713927
 20
-121.50329462843564
 11
406.32910729713927
 21
-127.50329462843615
  0
LINE
  8
_0-4_
  6
CONTINUOUS
 62
    7
 10
406.32910729713927
 20
-92.503294628436009
 11
656.32910729714035
 21
-92.503294628436009
  0
LINE
  8
_0-4_
  6
CONTINUOUS
 62
    7
 10
406.32910729713927
 20
-92.503294628436009
 11
406.32910729713927
 21
-98.503294628436095
  0
LINE
  8
_0-4_
  6
CONTINUOUS
 62
    7
 10
406.32910729713927
 20
-17.503294628439843
 11
656.32910729714035
 21
-17.503294628439843
  0
LINE
  8
_0-4_
  6
CONTINUOUS
 62
    7
 10
406.32910729713927
 20
-17.503294628439843
 11
406.32910729713927
 21
-11.503294628439331
  0
LINE
  8
_0-4_
  6
CONTINUOUS
 62
    7
 10
406.32910729713927
 20
17.496705371560299
 11
656.32910729714035
 21
17.496705371560299
  0
LINE
  8
_0-4_
  6
CONTINUOUS
 62
    7
 10
406.32910729713927
 20
11.496705371560214
 11
406.32910729713927
 21
17.496705371560299
  0
LINE
  8
_0-4_
  6
CONTINUOUS
 62
    7
 10
406.32910729713927
 20
92.496705371559869
 11
656.32910729714035
 21
92.496705371559869
  0
LINE
  8
_0-4_
  6
CONTINUOUS
 62
    7
 10
406.32910729713927
 20
92.496705371559869
 11
406.32910729713927
 21
98.496705371560381
  0
LINE
  8
_0-4_
  6
CONTINUOUS
 62
    7
 10
406.32910729713927
 20
127.49670537156001
 11
656.32910729714035
 21
127.49670537156001
  0
LINE
  8
_0-4_
  6
CONTINUOUS
 62
    7
 10
406.32910729713927
 20
121.49670537155993
 11
406.32910729713927
 21
127.49670537156001
  0
LINE
  8
_0-4_
  6
CONTINUOUS
 62
    7
 10
585.32910729714195
 20
-133.00329462843754
 11
402.15638631977043
 21
-133.00329462843754
  0
LINE
  8
_0-4_
  6
CONTINUOUS
 62
    7
 10
402.15638631977043
 20
-133.00329462843754
 11
402.15638631977043
 21
-74.331190427075512
  0
LINE
  8
_0-4_
  6
CONTINUOUS
 62
    7
 10
402.15638631977043
 20
-24.646861064606806
 11
585.32910729714195
 21
-24.646861064606806
  0
LINE
  8
_0-4_
  6
CONTINUOUS
 62
    7
 10
402.15638631977043
 20
-24.646861064606806
 11
402.15638631977043
 21
24.6402718077311
  0
LINE
  8
_0-4_
  6
CONTINUOUS
 62
    7
 10
402.15638631977043
 20
24.6402718077311
 11
585.32910729714195
 21
24.6402718077311
  0
LINE
  8
_0-4_
  6
CONTINUOUS
 62
    7
 10
402.15638631977043
 20
74.996705371562143
 11
402.15638631977043
 21
132.99670537156183
  0
LINE
  8
_0-4_
  6
CONTINUOUS
 62
    7
 10
585.32910729714195
 20
132.99670537156183
 11
402.15638631977043
 21
132.99670537156183
  0
ARC
  8
_0-4_
  6
CONTINUOUS
 62
    7
 10
421.32910729713927
 20
-110.00329462843544
 40
6
 50
288.96784844070731
 51
71.03215155957848
  0
LINE
  8
_0-4_
  6
CONTINUOUS
 62
    7
 10
406.32910729713927
 20
-121.50329462843521
 11
423.27933244677382
 21
-115.67750134530277
  0
LINE
  8
_0-4_
  6
CONTINUOUS
 62
    7
 10
406.32910729713927
 20
-98.503294628435242
 11
423.27933244685227
 21
-104.32908791159539
  0
ARC
  8
_0-4_
  6
CONTINUOUS
 62
    7
 10
421.32910729713927
 20
109.99670537155973
 40
6
 50
288.96784844042151
 51
71.0321515592927
  0
LINE
  8
_0-4_
  6
CONTINUOUS
 62
    7
 10
406.32910729713927
 20
121.49670537155907
 11
423.27933244677382
 21
115.67091208842663
  0
LINE
  8
_0-4_
  6
CONTINUOUS
 62
    7
 10
406.32910729713927
 20
98.496705371559528
 11
423.27933244685227
 21
104.32249865471968
  0
ARC
  8
_0-4_
  6
CONTINUOUS
 62
    7
 10
421.32910729713927
 20
-0.0032946284399848
 40
6
 50
288.96784844042151
 51
71.0321515592927
  0
LINE
  8
_0-4_
  6
CONTINUOUS
 62
    7
 10
406.32910729713927
 20
11.496705371559361
 11
423.27933244677382
 21
5.6709120884269204
  0
LINE
  8
_0-4_
  6
CONTINUOUS
 62
    7
 10
406.32910729713927
 20
-11.503294628440184
 11
423.27933244685227
 21
-5.6775013452800316
  0
LINE
  8
_0-4_
  6
CONTINUOUS
 62
    7
 10
656.32910729714035
 20
-121.50329462843564
 11
656.32910729714035
 21
-127.50329462843615
  0
LINE
  8
_0-4_
  6
CONTINUOUS
 62
    7
 10
656.32910729714035
 20
-92.503294628436009
 11
656.32910729714035
 21
-98.503294628436095
  0
ARC
  8
_0-4_
  6
CONTINUOUS
 62
    7
 10
641.32910729714035
 20
-110.00329462843544
 40
6
 50
108.96784844042152
 51
251.03215155929269
  0
LINE
  8
_0-4_
  6
CONTINUOUS
 62
    7
 10
656.32910729714035
 20
-121.50329462843521
 11
639.37888214750592
 21
-115.67750134530277
  0
LINE
  8
_0-4_
  6
CONTINUOUS
 62
    7
 10
656.32910729714035
 20
-98.503294628435242
 11
639.37888214742748
 21
-104.32908791159539
  0
LINE
  8
_0-4_
  6
CONTINUOUS
 62
    7
 10
656.32910729714035
 20
121.49670537155993
 11
656.32910729714035
 21
127.49670537156001
  0
LINE
  8
_0-4_
  6
CONTINUOUS
 62
    7
 10
656.32910729714035
 20
92.496705371559869
 11
656.32910729714035
 21
98.496705371560381
  0
ARC
  8
_0-4_
  6
CONTINUOUS
 62
    7
 10
641.32910729714035
 20
109.99670537155973
 40
6
 50
108.9678484407073
 51
251.03215155957849
  0
LINE
  8
_0-4_
  6
CONTINUOUS
 62
    7
 10
656.32910729714035
 20
121.49670537155907
 11
639.37888214750592
 21
115.67091208842663
  0
LINE
  8
_0-4_
  6
CONTINUOUS
 62
    7
 10
656.32910729714035
 20
98.496705371559528
 11
639.37888214742748
 21
104.32249865471968
  0
LINE
  8
_0-4_
  6
CONTINUOUS
 62
    7
 10
656.32910729714035
 20
11.496705371560214
 11
656.32910729714035
 21
17.496705371560299
  0
LINE
  8
_0-4_
  6
CONTINUOUS
 62
    7
 10
656.32910729714035
 20
-17.503294628439843
 11
656.32910729714035
 21
-11.503294628439331
  0
ARC
  8
_0-4_
  6
CONTINUOUS
 62
    7
 10
641.32910729714035
 20
-0.0032946284399848
 40
6
 50
108.9678484407073
 51
251.03215155957849
  0
LINE
  8
_0-4_
  6
CONTINUOUS
 62
    7
 10
656.32910729714035
 20
11.496705371559361
 11
639.37888214750592
 21
5.6709120884269204
  0
LINE
  8
_0-4_
  6
CONTINUOUS
 62
    7
 10
656.32910729714035
 20
-11.503294628440184
 11
639.37888214742748
 21
-5.6775013452800316
  0
LINE
  8
_0-4_
  6
CENTER2
 62
    4
 10
531.32910729715354
 20
-0.0032946284378532
 11
-4260.4724580218008
 21
-0.0032946284378532
  0
LINE
  8
_0-4_
  6
CENTER2
 62
    4
 10
531.3291072971399
 20
164.99670537156214
 11
531.3291072971399
 21
-165.00329462843786
  0
LINE
  8
_0-4_
  6
CONTINUOUS
 62
    7
 10
546.3291072971399
 20
132.99670537156183
 11
546.3291072971399
 21
127.49670537156001
  0
LINE
  8
_0-4_
  6
CONTINUOUS
 62
    7
 10
546.3291072971399
 20
164.99670537156214
 11
546.3291072971399
 21
144.996705371562
  0
LINE
  8
_0-4_
  6
CONTINUOUS
 62
    7
 10
546.3291072971399
 20
92.496705371559869
 11
546.3291072971399
 21
74.996705371562143
  0
LINE
  8
_0-4_
  6
CONTINUOUS
 62
    7
 10
546.3291072971399
 20
24.6402718077311
 11
546.3291072971399
 21
17.496705371560299
  0
LINE
  8
_0-4_
  6
CONTINUOUS
 62
    7
 10
546.3291072971399
 20
-17.503294628439843
 11
546.3291072971399
 21
-24.646861064606806
  0
LINE
  8
_0-4_
  6
CONTINUOUS
 62
    7
 10
546.3291072971399
 20
-75.003294628437857
 11
546.3291072971399
 21
-92.503294628436009
  0
LINE
  8
_0-4_
  6
CONTINUOUS
 62
    7
 10
546.3291072971399
 20
-127.50329462843615
 11
546.3291072971399
 21
-133.00329462843754
  0
LINE
  8
_0-4_
  6
CONTINUOUS
 62
    7
 10
546.3291072971399
 20
-145.00329462843771
 11
546.3291072971399
 21
-165.00329462843786
  0
LINE
  8
_0-4_
  6
CONTINUOUS
 62
    7
 10
516.32910729714149
 20
-145.00329462843771
 11
516.32910729714149
 21
-165.00329462843786
  0
LINE
  8
_0-4_
  6
CONTINUOUS
 62
    7
 10
516.32910729714149
 20
-127.50329462843615
 11
516.32910729714149
 21
-133.00329462843754
  0
LINE
  8
_0-4_
  6
CONTINUOUS
 62
    7
 10
516.32910729714149
 20
-75.003294628437857
 11
516.32910729714149
 21
-92.503294628436009
  0
LINE
  8
_0-4_
  6
CONTINUOUS
 62
    7
 10
516.32910729714149
 20
-17.503294628439843
 11
516.32910729714149
 21
-24.646861064606806
  0
LINE
  8
_0-4_
  6
CONTINUOUS
 62
    7
 10
516.32910729714149
 20
24.6402718077311
 11
516.32910729714149
 21
17.496705371560299
  0
LINE
  8
_0-4_
  6
CONTINUOUS
 62
    7
 10
516.32910729714149
 20
92.496705371559869
 11
516.32910729714149
 21
74.996705371562143
  0
LINE
  8
_0-4_
  6
CONTINUOUS
 62
    7
 10
516.32910729714149
 20
132.99670537156183
 11
516.32910729714149
 21
127.49670537156001
  0
LINE
  8
_0-4_
  6
CONTINUOUS
 62
    7
 10
516.32910729714149
 20
164.99670537156214
 11
516.32910729714149
 21
144.996705371562
  0
LINE
  8
_0-4_
  6
CONTINUOUS
 62
    7
 10
546.3291072971399
 20
-165.00329462843786
 11
516.32910729714149
 21
-165.00329462843786
  0
LINE
  8
_0-4_
  6
CONTINUOUS
 62
    7
 10
585.32910729714195
 20
-75.003294628437857
 11
585.32910729714195
 21
-24.646861064606806
  0
LINE
  8
_0-4_
  6
CONTINUOUS
 62
    7
 10
585.32910729714195
 20
-75.003294628437857
 11
-4232.4724580218008
 21
-75.003294628437857
  0
LINE
  8
_0-4_
  6
CONTINUOUS
 62
    7
 10
585.32910729714195
 20
74.996705371562143
 11
585.32910729714195
 21
24.6402718077311
  0
LINE
  8
_0-4_
  6
CONTINUOUS
 62
    7
 10
341.32910729714212
 20
-145.00329462843771
 11
220.08555076731881
 21
-75.003294628437857
  0
LINE
  8
_0-4_
  6
CONTINUOUS
 62
    7
 10
585.32910729714195
 20
-145.00329462843771
 11
585.32910729714195
 21
-133.00329462843754
  0
LINE
  8
_0-4_
  6
CONTINUOUS
 62
    7
 10
585.32910729714195
 20
-145.00329462843771
 11
341.32910729714212
 21
-145.00329462843771
  0
LINE
  8
_0-4_
  6
CONTINUOUS
 62
    7
 10
585.32910729714195
 20
144.996705371562
 11
585.32910729714195
 21
132.99670537156183
  0
LINE
  8
_0-4_
  6
CONTINUOUS
 62
    7
 10
585.32910729714195
 20
74.996705371562143
 11
-4232.4724580218008
 21
74.996705371562143
  0
LINE
  8
_0-4_
  6
CONTINUOUS
 62
    7
 10
341.32910729714212
 20
144.996705371562
 11
220.08555076731881
 21
74.996705371562143
  0
LINE
  8
_0-4_
  6
CONTINUOUS
 62
    7
 10
585.32910729714195
 20
144.996705371562
 11
341.32910729714212
 21
144.996705371562
  0
LINE
  8
_0-4_
  6
CONTINUOUS
 62
    7
 10
546.3291072971399
 20
164.99670537156214
 11
516.32910729714149
 21
164.99670537156214
  0
ENDBLK
  0
BLOCK
  2
-027-____平面1
 70
   64
 10
0
 20
0
 30
0
  0
INSERT
  2
-025-____下部平面
  8
_0-f_
 10
-3807.5415620622366
 20
2.0984767601282783
 41
1
 42
1
 50
0
  0
INSERT
  2
-022-____中間部平面
  8
_0-f_
 10
-1822.0803125725793
 20
-4.2590602992606819
 41
1
 42
1
 50
0
  0
INSERT
  2
-026-____上部平面
  8
_0-f_
 10
5629.6218746348168
 20
2.1605835391341088
 41
1
 42
1
 50
0
  0
ENDBLK
  0
BLOCK
  2
-028-踊り場
 70
   64
 10
0
 20
0
 30
0
  0
LINE
  8
_0-2_
  6
CONTINUOUS
 62
    7
 10
0
 20
344.99999999999955
 11
0
 21
-344.99999999999955
  0
LINE
  8
_0-2_
  6
CONTINUOUS
 62
    7
 10
486.3402399082463
 20
-344.99999999999955
 11
0
 21
-344.99999999999955
  0
LINE
  8
_0-2_
  6
CONTINUOUS
 62
    7
 10
1700.0000000000005
 20
344.99999999999955
 11
1700.0000000000005
 21
-344.99999999999955
  0
LINE
  8
_0-2_
  6
CONTINUOUS
 62
    7
 10
1700.0000000000005
 20
-344.99999999999955
 11
1219.2113063312581
 21
-344.99999999999955
  0
LINE
  8
_0-2_
  6
CONTINUOUS
 62
    7
 10
1699.9999999999989
 20
-794.99999999999875
 11
1282.7757731197516
 21
-794.99999999999875
  0
LINE
  8
_0-2_
  6
CONTINUOUS
 62
    7
 10
1699.9999999999989
 20
-1484.999999999998
 11
1699.9999999999989
 21
-794.99999999999875
  0
LINE
  8
_0-2_
  6
CONTINUOUS
 62
    7
 10
1699.9999999999989
 20
-1484.999999999998
 11
1315.3474492162381
 21
-1484.999999999998
  0
LINE
  8
_0-2_
  6
CONTINUOUS
 62
    7
 10
395.30517099197368
 20
-1484.999999999998
 11
-0.0000000000017053
 21
-1484.999999999998
  0
LINE
  8
_0-2_
  6
CONTINUOUS
 62
    7
 10
-0.0000000000017053
 20
-1484.999999999998
 11
-0.0000000000017053
 21
-794.99999999999875
  0
LINE
  8
_0-2_
  6
CONTINUOUS
 62
    7
 10
422.77577311975278
 20
-794.99999999999875
 11
-0.0000000000017053
 21
-794.99999999999875
  0
LINE
  8
_0-2_
  6
CONTINUOUS
 62
    7
 10
633.68080975793771
 20
344.99999999999955
 11
0
 21
344.99999999999955
  0
LINE
  8
_0-2_
  6
CONTINUOUS
 62
    7
 10
1700.0000000000005
 20
344.99999999999955
 11
1067.5561586601789
 21
344.99999999999955
  0
LINE
  8
_0-f_
  6
CONTINUOUS
 62
    7
 10
1102.7757731197537
 20
-44.999999999999574
 11
1102.7757731197537
 21
-220.1428863092809
  0
LINE
  8
_0-f_
  6
CONTINUOUS
 62
    7
 10
602.77577311975347
 20
-44.999999999999574
 11
602.77577311975347
 21
-220.14288630928081
  0
LINE
  8
_0-f_
  6
CONTINUOUS
 62
    7
 10
1102.7757731197537
 20
-44.999999999999574
 11
1047.6184842090584
 21
-44.999999999999574
  0
LINE
  8
_0-f_
  6
CONTINUOUS
 62
    7
 10
653.61848420905858
 20
-44.999999999999574
 11
602.77577311975347
 21
-44.999999999999574
  0
ENDBLK
  0
ENDSEC
  0
SECTION
  2
ENTITIES
  0
LINE
  8
ADD_LINE
  6
DOT
 62
    7
 10
422.52794496990532
 20
-298.94239036973318
 11
24902.527944969901
 21
-298.94239036973318
  0
LINE
  8
ADD_LINE
  6
DOT
 62
    7
 10
24902.527944969901
 20
16861.058024478596
 11
422.52794496990532
 21
16861.058024478596
  0
LINE
  8
ADD_LINE
  6
DOT
 62
    7
 10
422.52794496990532
 20
16861.058024478596
 11
422.52794496990532
 21
-298.94239036973147
  0
LINE
  8
_f-0_
  6
CONTINUOUS
 62
    3
 10
608.81212465740532
 20
-136.70137493546633
 11
608.81212465740532
 21
16523.849162173909
  0
LINE
  8
_f-0_
  6
CONTINUOUS
 62
    3
 10
608.81212465740532
 20
16523.849162173909
 11
12575.074026512873
 21
16523.849162173909
  0
LINE
  8
_f-0_
  6
CONTINUOUS
 62
    3
 10
608.81212465740532
 20
-136.70137493546804
 11
24783.035147118339
 21
-136.70137493546804
  0
LINE
  8
ADD_LINE
  6
DOT
 62
    7
 10
24902.527944969901
 20
-298.94239036973318
 11
24902.527944969901
 21
16861.058024478596
  0
LINE
  8
_f-0_
  6
CONTINUOUS
 62
    7
 10
12784.819509911311
 20
16814.950236392659
 11
12780.11461489178
 21
16814.950236392659
  0
LINE
  8
_f-0_
  6
CONTINUOUS
 62
    7
 10
12783.496572899592
 20
16802.951335025471
 11
12775.411550926936
 21
16802.951335025471
  0
LINE
  8
_f-0_
  6
CONTINUOUS
 62
    7
 10
12783.496572899592
 20
16790.952433658284
 11
12771.491262840998
 21
16790.952433658284
  0
LINE
  8
_f-0_
  6
CONTINUOUS
 62
    7
 10
12783.496572899592
 20
16778.951701236409
 11
12766.787283348811
 21
16778.951701236409
  0
LINE
  8
_f-0_
  6
CONTINUOUS
 62
    7
 10
12783.496572899592
 20
16766.950968814534
 11
12762.083303856623
 21
16766.950968814534
  0
LINE
  8
_f-0_
  6
CONTINUOUS
 62
    7
 10
12783.496572899592
 20
16754.950236392659
 11
12756.594717430842
 21
16754.950236392659
  0
LINE
  8
_f-0_
  6
CONTINUOUS
 62
    7
 10
12783.496572899592
 20
16742.951335025471
 11
12752.675344872248
 21
16742.951335025471
  0
LINE
  8
_f-0_
  6
CONTINUOUS
 62
    7
 10
12783.496572899592
 20
16730.952433658284
 11
12747.972280907405
 21
16730.952433658284
  0
LINE
  8
_f-0_
  6
CONTINUOUS
 62
    7
 10
12783.496572899592
 20
16718.951701236409
 11
12743.267385887873
 21
16718.951701236409
  0
LINE
  8
_f-0_
  6
CONTINUOUS
 62
    7
 10
12783.496572899592
 20
16706.950968814534
 11
12738.56432192303
 21
16706.950968814534
  0
LINE
  8
_f-0_
  6
CONTINUOUS
 62
    7
 10
12783.496572899592
 20
16694.950236392659
 11
12733.074819969905
 21
16694.950236392659
  0
LINE
  8
_f-0_
  6
CONTINUOUS
 62
    7
 10
12783.496572899592
 20
16682.951335025471
 11
12729.155447411311
 21
16682.951335025471
  0
LINE
  8
_f-0_
  6
CONTINUOUS
 62
    7
 10
12783.496572899592
 20
16670.952433658284
 11
12723.66686098553
 21
16670.952433658284
  0
LINE
  8
_f-0_
  6
CONTINUOUS
 62
    7
 10
12783.496572899592
 20
16658.951701236409
 11
12718.180105614436
 21
16658.951701236409
  0
LINE
  8
_f-0_
  6
CONTINUOUS
 62
    7
 10
12783.496572899592
 20
16646.950968814534
 11
12714.258902001155
 21
16646.950968814534
  0
LINE
  8
_f-0_
  6
CONTINUOUS
 62
    7
 10
12783.496572899592
 20
16634.952067447346
 11
12708.587210106623
 21
16634.952067447346
  0
LINE
  8
_f-0_
  6
CONTINUOUS
 62
    7
 10
12783.496572899592
 20
16622.951335025471
 11
12705.500967430842
 21
16622.951335025471
  0
LINE
  8
_f-0_
  6
CONTINUOUS
 62
    7
 10
12783.496572899592
 20
16610.950602603596
 11
12699.327566551936
 21
16610.950602603596
  0
LINE
  8
_f-0_
  6
CONTINUOUS
 62
    7
 10
12783.496572899592
 20
16598.951701236409
 11
12694.696829247248
 21
16598.951701236409
  0
LINE
  8
_f-0_
  6
CONTINUOUS
 62
    7
 10
12783.496572899592
 20
16586.950968814534
 11
12690.067007469905
 21
16586.950968814534
  0
LINE
  8
_f-0_
  6
CONTINUOUS
 62
    7
 10
12783.496572899592
 20
16574.952067447346
 11
12684.664480614436
 21
16574.952067447346
  0
LINE
  8
_f-0_
  6
CONTINUOUS
 62
    7
 10
12783.496572899592
 20
16562.951335025471
 11
12680.033743309748
 21
16562.951335025471
  0
LINE
  8
_f-0_
  6
CONTINUOUS
 62
    7
 10
12783.496572899592
 20
16550.950602603596
 11
12675.403006005061
 21
16550.950602603596
  0
LINE
  8
_f-0_
  6
CONTINUOUS
 62
    7
 10
12783.496572899592
 20
16538.951701236409
 11
12670.772268700373
 21
16538.951701236409
  0
LINE
  8
_f-0_
  6
CONTINUOUS
 62
    7
 10
12783.496572899592
 20
16526.952799869221
 11
12666.141531395686
 21
16526.952799869221
  0
LINE
  8
_f-0_
  6
CONTINUOUS
 62
    7
 10
12783.496572899592
 20
16514.952067447346
 11
12660.739004540217
 21
16514.952067447346
  0
LINE
  8
_f-0_
  6
CONTINUOUS
 62
    7
 10
12783.496572899592
 20
16502.951335025471
 11
12656.110098290217
 21
16502.951335025471
  0
LINE
  8
_f-0_
  6
CONTINUOUS
 62
    7
 10
12783.496572899592
 20
16490.950602603596
 11
12651.47936098553
 21
16490.950602603596
  0
LINE
  8
_f-0_
  6
CONTINUOUS
 62
    7
 10
12783.496572899592
 20
16478.949870181721
 11
12646.848623680842
 21
16478.949870181721
  0
LINE
  8
_f-0_
  6
CONTINUOUS
 62
    7
 10
12783.496572899592
 20
16466.950968814534
 11
12641.446096825373
 21
16466.950968814534
  0
LINE
  8
_f-0_
  6
CONTINUOUS
 62
    7
 10
12783.496572899592
 20
16454.952067447346
 11
12636.815359520686
 21
16454.952067447346
  0
LINE
  8
_f-0_
  6
CONTINUOUS
 62
    7
 10
12783.496572899592
 20
16442.951335025471
 11
12631.305715965998
 21
16442.951335025471
  0
LINE
  8
_f-0_
  6
CONTINUOUS
 62
    7
 10
12783.496572899592
 20
16430.950602603596
 11
12626.546804833186
 21
16430.950602603596
  0
LINE
  8
_f-0_
  6
CONTINUOUS
 62
    7
 10
12783.496572899592
 20
16418.951701236409
 11
12621.787893700373
 21
16418.951701236409
  0
LINE
  8
_f-0_
  6
CONTINUOUS
 62
    7
 10
12783.496572899592
 20
16406.950968814534
 11
12617.028067040217
 21
16406.950968814534
  0
LINE
  8
_f-0_
  6
CONTINUOUS
 62
    7
 10
12783.496572899592
 20
16394.952067447346
 11
12612.270071434748
 21
16394.952067447346
  0
LINE
  8
_f-0_
  6
CONTINUOUS
 62
    7
 10
12783.496572899592
 20
16382.951335025473
 11
12606.717398094905
 21
16382.951335025473
  0
LINE
  8
_f-0_
  6
CONTINUOUS
 62
    7
 10
12783.496572899592
 20
16370.952433658285
 11
12602.750418114436
 21
16370.952433658285
  0
LINE
  8
_f-0_
  6
CONTINUOUS
 62
    7
 10
12783.496572899592
 20
16358.95170123641
 11
12597.992422508967
 21
16358.95170123641
  0
LINE
  8
_f-0_
  6
CONTINUOUS
 62
    7
 10
12783.496572899592
 20
16346.950968814535
 11
12593.232595848811
 21
16346.950968814535
  0
LINE
  8
_f-0_
  6
CONTINUOUS
 62
    7
 10
12783.496572899592
 20
16334.95023639266
 11
12587.679922508967
 21
16334.95023639266
  0
LINE
  8
_f-0_
  6
CONTINUOUS
 62
    7
 10
12783.496572899592
 20
16310.952433658285
 11
12578.162100243342
 21
16310.952433658285
  0
LINE
  8
_f-0_
  6
CONTINUOUS
 62
    7
 10
12783.496572899592
 20
16298.95170123641
 11
12573.404104637873
 21
16298.95170123641
  0
LINE
  8
_f-0_
  6
CONTINUOUS
 62
    7
 10
12783.496572899592
 20
16286.950968814535
 11
12568.644277977717
 21
16286.950968814535
  0
LINE
  8
_f-0_
  6
CONTINUOUS
 62
    7
 10
12783.496572899592
 20
16274.95023639266
 11
12563.885366844905
 21
16274.95023639266
  0
LINE
  8
_f-0_
  6
CONTINUOUS
 62
    7
 10
12783.496572899592
 20
16262.951335025473
 11
12559.125540184748
 21
16262.951335025473
  0
LINE
  8
_f-0_
  6
CONTINUOUS
 62
    7
 10
12783.496572899592
 20
16250.952433658285
 11
12555.160391258967
 21
16250.952433658285
  0
LINE
  8
_f-0_
  6
CONTINUOUS
 62
    7
 10
12786.223928856623
 20
16226.950968814535
 11
12544.70690004803
 21
16226.950968814535
  0
LINE
  8
_f-0_
  6
CONTINUOUS
 62
    7
 10
12786.223928856623
 20
16832.010172916096
 11
12786.223928856623
 21
16226.950968814535
  0
LINE
  8
_f-0_
  6
CONTINUOUS
 62
    7
 10
12906.223928856623
 20
16823.929728580159
 11
12906.223928856623
 21
16226.950968814535
  0
LINE
  8
_f-0_
  6
CONTINUOUS
 62
    7
 10
13134.225027489436
 20
16252.217692447348
 11
13134.225027489436
 21
16226.950968814535
  0
LINE
  8
_f-0_
  6
CONTINUOUS
 62
    7
 10
13145.07311098553
 20
16226.950968814535
 11
12906.223928856623
 21
16226.950968814535
  0
LINE
  8
_f-0_
  6
CONTINUOUS
 62
    7
 10
12904.855215477717
 20
16828.540324283284
 11
13145.07311098553
 21
16226.950968814535
  0
LINE
  8
_f-0_
  6
CONTINUOUS
 62
    7
 10
13140.22447817303
 20
16238.213786197348
 11
13140.22447817303
 21
16226.987589908285
  0
LINE
  8
_f-0_
  6
CONTINUOUS
 62
    7
 10
13128.223745751155
 20
16267.697428775473
 11
13128.223745751155
 21
16227.25492389266
  0
LINE
  8
_f-0_
  6
CONTINUOUS
 62
    7
 10
13122.224295067561
 20
16282.312907291098
 11
13122.224295067561
 21
16226.987589908285
  0
LINE
  8
_f-0_
  6
CONTINUOUS
 62
    7
 10
13116.224844383967
 20
16293.496989322348
 11
13116.224844383967
 21
16226.987589908285
  0
LINE
  8
_f-0_
  6
CONTINUOUS
 62
    7
 10
13110.223562645686
 20
16308.976725650473
 11
13110.223562645686
 21
16227.25492389266
  0
LINE
  8
_f-0_
  6
CONTINUOUS
 62
    7
 10
13104.224111962092
 20
16326.177653384848
 11
13104.224111962092
 21
16226.987589908285
  0
LINE
  8
_f-0_
  6
CONTINUOUS
 62
    7
 10
13098.223745751155
 20
16339.93802936141
 11
13098.223745751155
 21
16227.25492389266
  0
LINE
  8
_f-0_
  6
CONTINUOUS
 62
    7
 10
13092.224295067561
 20
16358.858317447348
 11
13092.224295067561
 21
16227.25492389266
  0
LINE
  8
_f-0_
  6
CONTINUOUS
 62
    7
 10
13086.224844383967
 20
16370.89750201766
 11
13086.224844383967
 21
16226.987589908285
  0
LINE
  8
_f-0_
  6
CONTINUOUS
 62
    7
 10
13080.223562645686
 20
16386.377238345784
 11
13080.223562645686
 21
16227.25492389266
  0
LINE
  8
_f-0_
  6
CONTINUOUS
 62
    7
 10
13074.224111962092
 20
16403.578166080159
 11
13074.224111962092
 21
16226.95463092391
  0
LINE
  8
_f-0_
  6
CONTINUOUS
 62
    7
 10
13068.223745751155
 20
16419.057902408284
 11
13068.223745751155
 21
16226.95463092391
  0
LINE
  8
_f-0_
  6
CONTINUOUS
 62
    7
 10
13062.224295067561
 20
16429.377726627034
 11
13062.224295067561
 21
16227.331828189535
  0
LINE
  8
_f-0_
  6
CONTINUOUS
 62
    7
 10
13056.224844383967
 20
16446.578654361409
 11
13056.224844383967
 21
16226.95463092391
  0
LINE
  8
_f-0_
  6
CONTINUOUS
 62
    7
 10
13050.223562645686
 20
16460.337199283284
 11
13050.223562645686
 21
16226.95463092391
  0
LINE
  8
_f-0_
  6
CONTINUOUS
 62
    7
 10
13044.224111962092
 20
16479.167765689534
 11
13044.224111962092
 21
16226.95463092391
  0
LINE
  8
_f-0_
  6
CONTINUOUS
 62
    7
 10
13038.224661278498
 20
16491.260050845784
 11
13038.224661278498
 21
16227.331828189535
  0
LINE
  8
_f-0_
  6
CONTINUOUS
 62
    7
 10
13032.224295067561
 20
16507.748698306721
 11
13032.224295067561
 21
16226.95463092391
  0
LINE
  8
_f-0_
  6
CONTINUOUS
 62
    7
 10
13026.224844383967
 20
16522.038249087971
 11
13026.224844383967
 21
16227.331828189535
  0
LINE
  8
_f-0_
  6
CONTINUOUS
 62
    7
 10
13020.223562645686
 20
16537.428263736409
 11
13020.223562645686
 21
16227.331828189535
  0
LINE
  8
_f-0_
  6
CONTINUOUS
 62
    7
 10
13014.224111962092
 20
16552.816447330159
 11
13014.224111962092
 21
16226.95463092391
  0
LINE
  8
_f-0_
  6
CONTINUOUS
 62
    7
 10
13008.224661278498
 20
16566.009196353596
 11
13008.224661278498
 21
16226.95463092391
  0
LINE
  8
_f-0_
  6
CONTINUOUS
 62
    7
 10
13002.224295067561
 20
16582.496012759846
 11
13002.224295067561
 21
16226.95463092391
  0
LINE
  8
_f-0_
  6
CONTINUOUS
 62
    7
 10
12996.224844383967
 20
16596.889933658284
 11
12996.224844383967
 21
16226.95463092391
  0
LINE
  8
_f-0_
  6
CONTINUOUS
 62
    7
 10
12990.223562645686
 20
16612.371501041096
 11
12990.223562645686
 21
16227.331828189535
  0
LINE
  8
_f-0_
  6
CONTINUOUS
 62
    7
 10
12984.224111962092
 20
16628.587321353596
 11
12984.224111962092
 21
16226.95463092391
  0
LINE
  8
_f-0_
  6
CONTINUOUS
 62
    7
 10
12978.224661278498
 20
16643.329142642659
 11
12978.224661278498
 21
16226.95463092391
  0
LINE
  8
_f-0_
  6
CONTINUOUS
 62
    7
 10
12972.223379540217
 20
16658.810710025471
 11
12972.223379540217
 21
16226.95463092391
  0
LINE
  8
_f-0_
  6
CONTINUOUS
 62
    7
 10
12966.223928856623
 20
16673.554362369221
 11
12966.223928856623
 21
16226.95463092391
  0
LINE
  8
_f-0_
  6
CONTINUOUS
 62
    7
 10
12960.223562645686
 20
16688.296183658284
 11
12960.223562645686
 21
16227.331828189535
  0
LINE
  8
_f-0_
  6
CONTINUOUS
 62
    7
 10
12954.224111962092
 20
16703.039836002034
 11
12954.224111962092
 21
16226.95463092391
  0
LINE
  8
_f-0_
  6
CONTINUOUS
 62
    7
 10
12948.224661278498
 20
16718.519572330159
 11
12948.224661278498
 21
16226.95463092391
  0
LINE
  8
_f-0_
  6
CONTINUOUS
 62
    7
 10
12942.223379540217
 20
16736.211222720784
 11
12942.223379540217
 21
16226.95463092391
  0
LINE
  8
_f-0_
  6
CONTINUOUS
 62
    7
 10
12936.223928856623
 20
16750.216960025471
 11
12936.223928856623
 21
16227.331828189535
  0
LINE
  8
_f-0_
  6
CONTINUOUS
 62
    7
 10
12930.22447817303
 20
16764.958781314534
 11
12930.22447817303
 21
16226.95463092391
  0
LINE
  8
_f-0_
  6
CONTINUOUS
 62
    7
 10
12924.224111962092
 20
16780.438517642659
 11
12924.224111962092
 21
16226.95463092391
  0
LINE
  8
_f-0_
  6
CONTINUOUS
 62
    7
 10
12918.224661278498
 20
16795.182169986409
 11
12918.224661278498
 21
16226.95463092391
  0
LINE
  8
_f-0_
  6
CONTINUOUS
 62
    7
 10
12912.223379540217
 20
16809.925822330159
 11
12912.223379540217
 21
16227.331828189535
  0
LINE
  8
_f-0_
  6
CONTINUOUS
 62
    7
 10
12783.496572899592
 20
16238.95170123641
 11
12549.459402489436
 21
16238.95170123641
  0
LINE
  8
_f-0_
  6
CONTINUOUS
 62
    7
 10
12544.70690004803
 20
16226.950968814535
 11
12786.174490380061
 21
16828.540324283284
  0
LINE
  8
_f-0_
  6
CONTINUOUS
 62
    7
 10
12783.496572899592
 20
16322.951335025473
 11
12583.311941551936
 21
16322.951335025473
  0
LINE
  8
_f-0_
  6
CONTINUOUS
 62
    3
 10
13170.359060692561
 20
16523.849162173909
 11
24783.035147118339
 21
16523.849162173909
  0
LINE
  8
_f-0_
  6
CONTINUOUS
 62
    7
 10
21770.507070946464
 20
1783.298625064532
 11
21770.507070946464
 21
-136.70137493546804
  0
LINE
  8
_f-0_
  6
CONTINUOUS
 62
    7
 10
18230.507070946464
 20
1783.298625064532
 11
18230.507070946464
 21
-136.70137493546804
  0
LINE
  8
_f-0_
  6
CONTINUOUS
 62
    7
 10
18470.507070946464
 20
1783.298625064532
 11
18470.507070946464
 21
-136.70137493546804
  0
LINE
  8
_f-0_
  6
CONTINUOUS
 62
    7
 10
18230.507070946464
 20
823.29862506453196
 11
21758.367178368339
 21
823.29862506453196
  0
LINE
  8
_f-0_
  6
CONTINUOUS
 62
    7
 10
18230.507070946464
 20
343.29862506453196
 11
21758.367178368339
 21
343.29862506453196
  0
LINE
  8
_f-0_
  6
CONTINUOUS
 62
    7
 10
19190.505239891776
 20
819.17892367903391
 11
19190.505239891776
 21
-136.70137493546804
  0
LINE
  8
_f-0_
  6
CONTINUOUS
 62
    7
 10
19430.505239891776
 20
819.17892367903391
 11
19430.505239891776
 21
-136.70137493546804
  0
LINE
  8
_f-0_
  6
CONTINUOUS
 62
    7
 10
20150.505239891776
 20
819.17892367903391
 11
20150.505239891776
 21
-136.70137493546804
  0
LINE
  8
_f-0_
  6
CONTINUOUS
 62
    7
 10
20390.505239891776
 20
819.17892367903391
 11
20390.505239891776
 21
-136.70137493546804
  0
LINE
  8
_f-0_
  6
CONTINUOUS
 62
    7
 10
22010.507070946464
 20
1783.298625064532
 11
22010.507070946464
 21
587.7692023045222
  0
LINE
  8
_f-0_
  6
CONTINUOUS
 62
    7
 10
18477.864248680839
 20
1303.298510623614
 11
21766.738760399589
 21
1303.298510623614
  0
LINE
  8
_f-0_
  6
CONTINUOUS
 62
    7
 10
18230.507070946464
 20
1783.298625064532
 11
24783.035147118339
 21
1783.298625064532
  0
LINE
  8
_f-0_
  6
CONTINUOUS
 62
    7
 10
21772.830679344901
 20
1183.2987395054499
 11
24783.035147118339
 21
1183.2987395054499
  0
LINE
  8
_f-0_
  6
CONTINUOUS
 62
    7
 10
21770.507070946464
 20
583.29873950544993
 11
24783.035147118339
 21
583.29873950544993
  0
LINE
  8
_f-0_
  6
CONTINUOUS
 62
    3
 10
24783.035147118339
 20
16523.849162173909
 11
24783.035147118339
 21
-136.70137493546804
  0
ARC
  8
_f-0_
  6
CONTINUOUS
 62
    7
 10
12846.223928856623
 20
16526.939982486409
 40
60
 50
173.452392578125
 51
174.23765563964841
  0
ARC
  8
_f-0_
  6
CONTINUOUS
 62
    7
 10
12846.223928856623
 20
16526.939982486409
 40
12.000000178813934
 50
211.20762634277347
 51
329.32518005371094
  0
ARC
  8
_f-0_
  6
CONTINUOUS
 62
    7
 10
12846.223928856623
 20
16526.939982486409
 40
12.000000178813934
 50
31.315933227539063
 51
150.50839233398437
  0
ARC
  8
_f-0_
  6
CONTINUOUS
 62
    7
 10
12846.223928856623
 20
16526.939982486409
 40
18.000000715255737
 50
199.68225097656247
 51
340.28662109375
  0
ARC
  8
_f-0_
  6
CONTINUOUS
 62
    7
 10
12846.223928856623
 20
16526.939982486409
 40
18.000000715255737
 50
19.778640747070312
 51
161.34576416015625
  0
ARC
  8
_f-0_
  6
CONTINUOUS
 62
    7
 10
12846.223928856623
 20
16526.939982486409
 40
24.000000357627869
 50
195.45452880859375
 51
344.75959777832031
  0
ARC
  8
_f-0_
  6
CONTINUOUS
 62
    7
 10
12846.223928856623
 20
16526.939982486409
 40
30
 50
192.263671875
 51
347.03778076171875
  0
ARC
  8
_f-0_
  6
CONTINUOUS
 62
    7
 10
12846.223928856623
 20
16526.939982486409
 40
36.000001430511475
 50
189.48106384277344
 51
349.94032287597656
  0
ARC
  8
_f-0_
  6
CONTINUOUS
 62
    7
 10
12846.223928856623
 20
16526.939982486409
 40
48.000000715255737
 50
187.16590881347656
 51
352.93656921386719
  0
ARC
  8
_f-0_
  6
CONTINUOUS
 62
    7
 10
12846.223928856623
 20
16526.939982486409
 40
60
 50
185.70593261718747
 51
354.27436828613276
  0
ARC
  8
_f-0_
  6
CONTINUOUS
 62
    7
 10
12846.223928856623
 20
16526.939982486409
 40
41.999999284744263
 50
188.17668151855466
 51
351.89909362792963
  0
ARC
  8
_f-0_
  6
CONTINUOUS
 62
    7
 10
12846.223928856623
 20
16526.939982486409
 40
53.999998569488525
 50
186.4352722167969
 51
353.5673828125
  0
ARC
  8
_f-0_
  6
CONTINUOUS
 62
    7
 10
12846.223928856623
 20
16526.939982486409
 40
60
 50
149.78610229492187
 51
149.92245483398435
  0
ARC
  8
_f-0_
  6
CONTINUOUS
 62
    7
 10
12846.223928856623
 20
16526.939982486409
 40
60
 50
162.15756225585937
 51
173.56423950195315
  0
ARC
  8
_f-0_
  6
CONTINUOUS
 62
    7
 10
12846.223928856623
 20
16526.939982486409
 40
53.999998569488525
 50
161.01020812988284
 51
173.56471252441409
  0
ARC
  8
_f-0_
  6
CONTINUOUS
 62
    7
 10
12846.223928856623
 20
16526.939982486409
 40
48.000000715255737
 50
158.32231140136719
 51
172.76014709472656
  0
ARC
  8
_f-0_
  6
CONTINUOUS
 62
    7
 10
12846.223928856623
 20
16526.939982486409
 40
41.999999284744263
 50
93.864730834960952
 51
133.89312744140628
  0
ARC
  8
_f-0_
  6
CONTINUOUS
 62
    7
 10
12846.223928856623
 20
16526.939982486409
 40
41.999999284744263
 50
154.77958679199219
 51
171.71357727050784
  0
ARC
  8
_f-0_
  6
CONTINUOUS
 62
    7
 10
12846.223928856623
 20
16526.939982486409
 40
36.000001430511475
 50
121.79113769531251
 51
123.08486938476564
  0
ARC
  8
_f-0_
  6
CONTINUOUS
 62
    7
 10
12846.223928856623
 20
16526.939982486409
 40
36.000001430511475
 50
150.12666320800781
 51
170.28010559082028
  0
ARC
  8
_f-0_
  6
CONTINUOUS
 62
    7
 10
12846.223928856623
 20
16526.939982486409
 40
30
 50
11.730392456054686
 51
37.211715698242187
  0
ARC
  8
_f-0_
  6
CONTINUOUS
 62
    7
 10
12846.223928856623
 20
16526.939982486409
 40
30
 50
143.23814392089841
 51
167.59942626953122
  0
ARC
  8
_f-0_
  6
CONTINUOUS
 62
    7
 10
12846.223928856623
 20
16526.939982486409
 40
24.000000357627869
 50
16.425811767578125
 51
48.920761108398438
  0
ARC
  8
_f-0_
  6
CONTINUOUS
 62
    7
 10
12846.223928856623
 20
16526.939982486409
 40
24.000000357627869
 50
133.03224182128906
 51
164.65681457519531
  0
ARC
  8
_f-0_
  6
CONTINUOUS
 62
    7
 10
12846.223928856623
 20
16526.939982486409
 40
36.000001430511475
 50
9.727508544921875
 51
29.972000122070313
  0
ARC
  8
_f-0_
  6
CONTINUOUS
 62
    7
 10
12846.223928856623
 20
16526.939982486409
 40
36.000001430511475
 50
58.41755676269532
 51
121.67060852050783
  0
ARC
  8
_f-0_
  6
CONTINUOUS
 62
    7
 10
12846.223928856623
 20
16526.939982486409
 40
41.999999284744263
 50
8.3769073486328125
 51
25.662551879882813
  0
ARC
  8
_f-0_
  6
CONTINUOUS
 62
    7
 10
12846.223928856623
 20
16526.939982486409
 40
41.999999284744263
 50
46.853485107421875
 51
93.854766845703139
  0
ARC
  8
_f-0_
  6
CONTINUOUS
 62
    7
 10
12846.223928856623
 20
16526.939982486409
 40
48.000000715255737
 50
7.2978057861328134
 51
22.25677490234375
  0
ARC
  8
_f-0_
  6
CONTINUOUS
 62
    7
 10
12846.223928856623
 20
16526.939982486409
 40
53.999998569488525
 50
6.84759521484375
 51
19.125015258789063
  0
ARC
  8
_f-0_
  6
CONTINUOUS
 62
    7
 10
12846.223928856623
 20
16526.939982486409
 40
60
 50
6.1827239990234375
 51
17.8507080078125
  0
ARC
  8
_f-0_
  6
CONTINUOUS
 62
    7
 10
12846.223928856623
 20
16526.939982486409
 40
60
 50
135.93258666992187
 51
151.00967407226562
  0
ARC
  8
_f-0_
  6
CONTINUOUS
 62
    7
 10
12846.223928856623
 20
16526.939982486409
 40
53.999998569488525
 50
129.24958801269531
 51
147.25019836425781
  0
ARC
  8
_f-0_
  6
CONTINUOUS
 62
    7
 10
12846.223928856623
 20
16526.939982486409
 40
48.000000715255737
 50
38.91082763671875
 51
61.17124938964843
  0
ARC
  8
_f-0_
  6
CONTINUOUS
 62
    7
 10
12846.223928856623
 20
16526.939982486409
 40
53.999998569488525
 50
34.45550537109375
 51
51.047042846679687
  0
ARC
  8
_f-0_
  6
CONTINUOUS
 62
    7
 10
12846.223928856623
 20
16526.939982486409
 40
48.000000715255737
 50
118.96093750000001
 51
140.77227783203128
  0
ARC
  8
_f-0_
  6
CONTINUOUS
 62
    7
 10
12846.223928856623
 20
16526.939982486409
 40
60
 50
64.288726806640625
 51
115.22802734374999
  0
ARC
  8
_f-0_
  6
CONTINUOUS
 62
    7
 10
12846.223928856623
 20
16526.939982486409
 40
60
 50
30.736236572265625
 51
44.432952880859375
  0
TEXT
  8
_f-0_
 62
    7
 10
12590.70299379803
 20
16035.918864322348
 40
180
 41
1
 50
0
  1
KENKI
  0
TEXT
  8
_f-0_
 62
    7
 10
21874.073355126151
 20
23.707727504412333
 40
180
 41
1
 50
0
  1
建機サービス株式会社
  0
TEXT
  8
_f-0_
 62
    7
 10
18333.831655906255
 20
298.50651021055569
 40
180
 41
1
 50
-0.000289372423083
  1
製図
  7
TATEGAKI
  0
TEXT
  8
_f-0_
 62
    7
 10
19302.860586571464
 20
298.50696082167019
 40
180
 41
1
 50
-0.0000025044779192
  1
検図
  7
TATEGAKI
  0
TEXT
  8
_f-0_
 62
    7
 10
20257.424185204276
 20
298.50696082167019
 40
180
 41
1
 50
-0.0000025044779192
  1
作図
  7
TATEGAKI
  0
TEXT
  8
_f-0_
 62
    7
 10
20257.424185204276
 20
775.78967566542019
 40
180
 41
1
 50
-0.0000025044779192
  1
縮尺
  7
TATEGAKI
  0
TEXT
  8
_f-0_
 62
    7
 10
19302.860586571464
 20
775.78967566542019
 40
180
 41
1
 50
-0.0000025044779192
  1
写図
  7
TATEGAKI
  0
TEXT
  8
_f-0_
 62
    7
 10
18362.756826805839
 20
775.78967566542019
 40
180
 41
1
 50
-0.0000025044779192
  1
設計
  7
TATEGAKI
  0
TEXT
  8
_f-0_
 62
    7
 10
18348.293325829276
 20
1629.1130589967181
 40
180
 41
1
 50
-0.000002504478104
  1
名　称
  7
TATEGAKI
  0
TEXT
  8
_f-0_
 62
    7
 10
21877.294180321464
 20
1730.3550481324603
 40
180
 41
1
 50
-0.0000025044779192
  1
客先
  7
TATEGAKI
  0
TEXT
  8
_f-0_
 62
    7
 10
21877.294180321464
 20
1108.4412145142971
 40
180
 41
1
 50
-0.0000025044779192
  1
図番
  7
TATEGAKI
  0
INSERT
  2
-006-_____________立面
  8
_0-0_
 10
22364.303975012717
 20
4035.8404374057473
 41
0.1666666666666666
 42
0.1666666666666666
 50
90
  0
INSERT
  2
-012-s1
  8
_0-0_
 10
8799.514324751497
 20
3028.3614747253114
 41
-0.5
 42
0.5
 50
90
  0
LINE
  8
_0-1_
  6
CONTINUOUS
 62
    7
 10
7437.928192045837
 20
2523.5080823474518
 11
6117.9733492383002
 21
13915.758515465994
  0
LINE
  8
_0-1_
  6
CONTINUOUS
 62
    7
 10
7544.3661341469315
 20
2535.8404374057482
 11
6323.2001646739709
 21
13938.636543803983
  0
LINE
  8
_0-2_
  6
CONTINUOUS
 62
    4
 10
10024.366134146931
 20
2360.5145157141042
 11
22024.366134146931
 21
2360.5145157141042
  0
LINE
  8
_0-2_
  6
CONTINUOUS
 62
    4
 10
10024.366134146931
 20
2360.5145157141051
 11
10198.232782878964
 21
2407.1019438325588
  0
LINE
  8
_0-2_
  6
CONTINUOUS
 62
    4
 10
10024.366134146931
 20
2360.5145157141051
 11
10198.232782878964
 21
2313.9270875956508
  0
LINE
  8
_0-2_
  6
CONTINUOUS
 62
    4
 10
22024.366134146931
 20
2360.5145157141033
 11
21850.499485414897
 21
2407.1019438325575
  0
LINE
  8
_0-2_
  6
CONTINUOUS
 62
    4
 10
22024.366134146931
 20
2360.5145157141033
 11
21850.499485414897
 21
2313.927087595649
  0
LINE
  8
_0-2_
  6
CONTINUOUS
 62
    4
 10
10024.366134146931
 20
2360.5145157141051
 11
10024.366134146931
 21
3526.0164481702482
  0
LINE
  8
_0-2_
  6
CONTINUOUS
 62
    4
 10
22024.366134146931
 20
2360.5145157141033
 11
22024.366134146931
 21
3526.0164481702463
  0
LINE
  8
_0-2_
  6
CONTINUOUS
 62
    4
 10
22024.366134146931
 20
2360.5145157141033
 11
22318.366134146931
 21
2360.5145157141033
  0
LINE
  8
_0-2_
  6
CONTINUOUS
 62
    4
 10
22318.366134146931
 20
2360.5145157141033
 11
22318.366134146931
 21
3526.0164481702463
  0
LINE
  8
_0-2_
  6
CONTINUOUS
 62
    4
 10
9894.3661341469287
 20
2360.5145157141051
 11
10024.366134146931
 21
2360.5145157141051
  0
LINE
  8
_0-2_
  6
CONTINUOUS
 62
    4
 10
9894.3661341469287
 20
2360.5145157141051
 11
9894.3661341469287
 21
3526.0164481702482
  0
LINE
  8
_0-2_
  6
CONTINUOUS
 62
    4
 10
9894.3661341469287
 20
2360.5145157141051
 11
9720.499485414899
 21
2313.9270875956508
  0
LINE
  8
_0-2_
  6
CONTINUOUS
 62
    4
 10
9894.3661341469287
 20
2360.5145157141051
 11
9720.499485414899
 21
2407.1019438325588
  0
LINE
  8
_0-2_
  6
CONTINUOUS
 62
    4
 10
22318.366134146931
 20
2360.5145157141033
 11
22492.232782878964
 21
2407.1019438325575
  0
LINE
  8
_0-2_
  6
CONTINUOUS
 62
    4
 10
22318.366134146931
 20
2360.5145157141033
 11
22492.232782878964
 21
2313.927087595649
  0
TEXT
  8
_0-2_
 62
    7
 10
9824.3661341469324
 20
2150.5145157141033
 40
180
 41
1
 50
0
  1
130
  0
TEXT
  8
_0-2_
 62
    7
 10
22036.366134146931
 20
2150.5145157141033
 40
180
 41
1
 50
0
  1
294
  0
TEXT
  8
_0-2_
 62
    7
 10
15799.366134146931
 20
2150.5145157141033
 40
180
 41
1
 50
0
  1
@3000×4＝12000
  0
LINE
  8
_0-2_
  6
CONTINUOUS
 62
    4
 10
7544.3661341469315
 20
2116.8299104263951
 11
9894.3661341469287
 21
2116.8299104263951
  0
LINE
  8
_0-2_
  6
CONTINUOUS
 62
    4
 10
7544.3661341469315
 20
2116.8299104263951
 11
7718.2327828789657
 21
2163.4173385448494
  0
LINE
  8
_0-2_
  6
CONTINUOUS
 62
    4
 10
7544.3661341469315
 20
2116.8299104263951
 11
7718.2327828789657
 21
2070.2424823079409
  0
LINE
  8
_0-2_
  6
CONTINUOUS
 62
    4
 10
9894.3661341469287
 20
2116.8299104263951
 11
9720.499485414899
 21
2163.4173385448494
  0
LINE
  8
_0-2_
  6
CONTINUOUS
 62
    4
 10
9894.3661341469287
 20
2116.8299104263951
 11
9720.499485414899
 21
2070.2424823079409
  0
LINE
  8
_0-2_
  6
CONTINUOUS
 62
    4
 10
7544.3661341469315
 20
2116.8299104263951
 11
7544.3661341469315
 21
2535.8404374057482
  0
LINE
  8
_0-2_
  6
CONTINUOUS
 62
    4
 10
9894.3661341469287
 20
2116.8299104263951
 11
9894.3661341469287
 21
2535.84043740575
  0
LINE
  8
_0-2_
  6
CONTINUOUS
 62
    4
 10
9894.3661341469287
 20
2116.8299104263951
 11
22318.366134146934
 21
2116.8299104263951
  0
LINE
  8
_0-2_
  6
CONTINUOUS
 62
    4
 10
9894.3661341469287
 20
2116.8299104263951
 11
10068.232782878964
 21
2163.4173385448494
  0
LINE
  8
_0-2_
  6
CONTINUOUS
 62
    4
 10
9894.3661341469287
 20
2116.8299104263951
 11
10068.232782878964
 21
2070.2424823079409
  0
LINE
  8
_0-2_
  6
CONTINUOUS
 62
    4
 10
22318.366134146934
 20
2116.8299104263951
 11
22144.499485414897
 21
2163.4173385448494
  0
LINE
  8
_0-2_
  6
CONTINUOUS
 62
    4
 10
22318.366134146934
 20
2116.8299104263951
 11
22144.499485414897
 21
2070.2424823079409
  0
LINE
  8
_0-2_
  6
CONTINUOUS
 62
    4
 10
22318.366134146934
 20
2116.8299104263951
 11
22318.366134146934
 21
2535.84043740575
  0
TEXT
  8
_0-2_
 62
    7
 10
8539.3661341469306
 20
1906.8299104263951
 40
180
 41
1
 50
0
  1
2350
  0
TEXT
  8
_0-2_
 62
    7
 10
15881.366134146931
 20
1906.8299104263951
 40
180
 41
1
 50
0
  1
12424
  0
LINE
  8
_0-2_
  6
CONTINUOUS
 62
    4
 10
9014.3766466891811
 20
3135.84043740575
 11
9014.3766466891811
 21
4035.84043740575
  0
LINE
  8
_0-2_
  6
CONTINUOUS
 62
    4
 10
9014.3766466891811
 20
3135.84043740575
 11
8967.789218570726
 21
3309.707086137782
  0
LINE
  8
_0-2_
  6
CONTINUOUS
 62
    4
 10
9014.3766466891811
 20
3135.84043740575
 11
9060.9640748076345
 21
3309.707086137782
  0
LINE
  8
_0-2_
  6
CONTINUOUS
 62
    4
 10
9014.3766466891811
 20
4035.84043740575
 11
8967.789218570726
 21
3861.9737886737166
  0
LINE
  8
_0-2_
  6
CONTINUOUS
 62
    4
 10
9014.3766466891811
 20
4035.84043740575
 11
9060.9640748076345
 21
3861.9737886737166
  0
LINE
  8
_0-2_
  6
CONTINUOUS
 62
    4
 10
9014.3766466891811
 20
3135.84043740575
 11
10024.366134146931
 21
3135.84043740575
  0
LINE
  8
_0-2_
  6
CONTINUOUS
 62
    4
 10
9014.3766466891811
 20
4035.84043740575
 11
10024.366134146931
 21
4035.84043740575
  0
TEXT
  8
_0-2_
 62
    7
 10
8984.3766466891811
 20
3450.84043740575
 40
180
 41
1
 50
90
  1
900
  0
LINE
  8
_0-2_
  6
CONTINUOUS
 62
    4
 10
6632.543852946309
 20
2535.8404374057482
 11
6632.543852946309
 21
4035.8404374057482
  0
LINE
  8
_0-2_
  6
CONTINUOUS
 62
    4
 10
6632.543852946309
 20
2535.8404374057482
 11
6585.9564248278548
 21
2709.707086137782
  0
LINE
  8
_0-2_
  6
CONTINUOUS
 62
    4
 10
6632.543852946309
 20
2535.8404374057482
 11
6679.1312810647632
 21
2709.707086137782
  0
LINE
  8
_0-2_
  6
CONTINUOUS
 62
    4
 10
6632.543852946309
 20
4035.8404374057482
 11
6585.9564248278548
 21
3861.9737886737166
  0
LINE
  8
_0-2_
  6
CONTINUOUS
 62
    4
 10
6632.543852946309
 20
4035.8404374057482
 11
6679.1312810647632
 21
3861.9737886737166
  0
LINE
  8
_0-2_
  6
CONTINUOUS
 62
    4
 10
6632.543852946309
 20
4035.8404374057491
 11
9014.3766466891811
 21
4035.8404374057491
  0
TEXT
  8
_0-2_
 62
    7
 10
6602.543852946309
 20
3105.8404374057482
 40
180
 41
1
 50
90
  1
1500
  0
LINE
  8
_0-2_
  6
CONTINUOUS
 62
    4
 10
6632.543852946309
 20
2535.8404374057482
 11
7544.3661341469315
 21
2535.8404374057482
  0
LINE
  8
_0-2_
  6
CONTINUOUS
 62
    4
 10
12504.598883040893
 20
3120.8404374057482
 11
12504.598883040893
 21
4950.84043740575
  0
LINE
  8
_0-2_
  6
CONTINUOUS
 62
    4
 10
12504.598883040893
 20
3120.8404374057482
 11
12458.011454922438
 21
3294.7070861377802
  0
LINE
  8
_0-2_
  6
CONTINUOUS
 62
    4
 10
12504.598883040893
 20
3120.8404374057482
 11
12551.186311159347
 21
3294.7070861377802
  0
LINE
  8
_0-2_
  6
CONTINUOUS
 62
    4
 10
12504.598883040893
 20
4950.84043740575
 11
12458.011454922438
 21
4776.9737886737184
  0
LINE
  8
_0-2_
  6
CONTINUOUS
 62
    4
 10
12504.598883040893
 20
4950.84043740575
 11
12551.186311159347
 21
4776.9737886737184
  0
LINE
  8
_0-2_
  6
CONTINUOUS
 62
    4
 10
12504.598883040893
 20
3120.8404374057482
 11
11375.935020116078
 21
3120.8404374057482
  0
LINE
  8
_0-2_
  6
CONTINUOUS
 62
    4
 10
12504.598883040893
 20
4950.84043740575
 11
11375.935020116081
 21
4950.84043740575
  0
TEXT
  8
_0-2_
 62
    7
 10
12474.598883040893
 20
4323.5324319904648
 40
180
 41
1
 50
90
  1
1830
  0
LINE
  8
_0-2_
  6
CONTINUOUS
 62
    4
 10
14758.081256213722
 20
3835.8404374057495
 11
14758.081256213722
 21
3535.8404374057495
  0
LINE
  8
_0-2_
  6
CONTINUOUS
 62
    4
 10
14758.081256213722
 20
3835.8404374057495
 11
14758.081256213722
 21
4235.8404374057509
  0
LINE
  8
_0-2_
  6
CONTINUOUS
 62
    4
 10
14758.081256213722
 20
3835.8404374057495
 11
14804.668684332175
 21
3661.9737886737175
  0
LINE
  8
_0-2_
  6
CONTINUOUS
 62
    4
 10
14758.081256213722
 20
3835.8404374057495
 11
14711.493828095267
 21
3661.9737886737175
  0
LINE
  8
_0-2_
  6
CONTINUOUS
 62
    4
 10
14758.081256213722
 20
4235.8404374057509
 11
14804.668684332175
 21
4409.7070861377824
  0
LINE
  8
_0-2_
  6
CONTINUOUS
 62
    4
 10
14758.081256213722
 20
4235.8404374057509
 11
14711.493828095267
 21
4409.7070861377824
  0
TEXT
  8
_0-2_
 62
    7
 10
14728.081256213722
 20
4438.5913412243845
 40
180
 41
1
 50
90
  1
400
  0
LINE
  8
_0-2_
  6
CONTINUOUS
 62
    4
 10
14758.081256213722
 20
4235.8404374057509
 11
14758.081256213722
 21
4781.2235836735645
  0
LINE
  8
_0-2_
  6
CONTINUOUS
 62
    4
 10
10024.366134146931
 20
4617.2573510149286
 11
10394.366134146932
 21
4617.2573510149286
  0
LINE
  8
_0-2_
  6
CONTINUOUS
 62
    4
 10
10024.366134146931
 20
4617.2573510149286
 11
10198.23278287896
 21
4663.8447791333829
  0
LINE
  8
_0-2_
  6
CONTINUOUS
 62
    4
 10
10024.366134146931
 20
4617.2573510149286
 11
10198.23278287896
 21
4570.6699228964753
  0
LINE
  8
_0-2_
  6
CONTINUOUS
 62
    4
 10
10394.366134146932
 20
4617.2573510149286
 11
10220.499485414897
 21
4663.8447791333829
  0
LINE
  8
_0-2_
  6
CONTINUOUS
 62
    4
 10
10394.366134146932
 20
4617.2573510149286
 11
10220.499485414897
 21
4570.6699228964753
  0
LINE
  8
_0-2_
  6
CONTINUOUS
 62
    4
 10
10024.366134146931
 20
4617.2573510149286
 11
10024.366134146931
 21
3526.0164481702482
  0
LINE
  8
_0-2_
  6
CONTINUOUS
 62
    4
 10
10394.366134146932
 20
4617.2573510149286
 11
10394.366134146932
 21
3526.0164481702482
  0
TEXT
  8
_0-2_
 62
    7
 10
10074.366134146929
 20
4647.2573510149286
 40
180
 41
1
 50
0
  1
370
  0
LINE
  8
_0-2_
  6
CONTINUOUS
 62
    4
 10
10024.366134146931
 20
5268.2877975208003
 11
11994.366134146929
 21
5268.2877975208003
  0
LINE
  8
_0-2_
  6
CONTINUOUS
 62
    4
 10
10024.366134146931
 20
5268.2877975208003
 11
10198.23278287896
 21
5314.8752256392545
  0
LINE
  8
_0-2_
  6
CONTINUOUS
 62
    4
 10
10024.366134146931
 20
5268.2877975208003
 11
10198.23278287896
 21
5221.700369402346
  0
LINE
  8
_0-2_
  6
CONTINUOUS
 62
    4
 10
11994.366134146929
 20
5268.2877975208003
 11
11820.499485414899
 21
5314.8752256392545
  0
LINE
  8
_0-2_
  6
CONTINUOUS
 62
    4
 10
11994.366134146929
 20
5268.2877975208003
 11
11820.499485414899
 21
5221.700369402346
  0
LINE
  8
_0-2_
  6
CONTINUOUS
 62
    4
 10
10024.366134146931
 20
5268.2877975208003
 11
10024.366134146931
 21
4617.2573510149286
  0
LINE
  8
_0-2_
  6
CONTINUOUS
 62
    4
 10
11994.366134146929
 20
5268.2877975208003
 11
11994.366134146929
 21
4617.2573510149286
  0
TEXT
  8
_0-2_
 62
    7
 10
10829.366134146929
 20
5298.2877975208003
 40
180
 41
1
 50
0
  1
1970
  0
LINE
  8
_0-2_
  6
CONTINUOUS
 62
    4
 10
8064.3661341469324
 20
1824.8857973270947
 11
10394.366134146932
 21
1824.8857973270947
  0
LINE
  8
_0-2_
  6
CONTINUOUS
 62
    4
 10
8064.3661341469324
 20
1824.8857973270947
 11
8238.2327828789639
 21
1871.4732254455487
  0
LINE
  8
_0-2_
  6
CONTINUOUS
 62
    4
 10
8064.3661341469324
 20
1824.8857973270947
 11
8238.2327828789639
 21
1778.2983692086407
  0
LINE
  8
_0-2_
  6
CONTINUOUS
 62
    4
 10
10394.366134146932
 20
1824.8857973270947
 11
10220.499485414901
 21
1871.4732254455487
  0
LINE
  8
_0-2_
  6
CONTINUOUS
 62
    4
 10
10394.366134146932
 20
1824.8857973270947
 11
10220.499485414901
 21
1778.2983692086407
  0
LINE
  8
_0-2_
  6
CONTINUOUS
 62
    4
 10
8064.3661341469324
 20
1824.8857973270947
 11
8064.3661341469324
 21
2846.5122352010412
  0
LINE
  8
_0-2_
  6
CONTINUOUS
 62
    4
 10
10394.366134146932
 20
1824.8857973270947
 11
10394.366134146932
 21
2846.512235201043
  0
TEXT
  8
_0-2_
 62
    7
 10
9049.3661341469306
 20
1854.8857973270947
 40
180
 41
1
 50
0
  1
2330
  0
LINE
  8
_0-1_
  6
CONTINUOUS
 62
    7
 10
8253.1270648024438
 20
14035.84043740575
 11
6253.1270648024438
 21
14035.84043740575
  0
INSERT
  2
-014-過巻___
  8
_0-1_
 10
8298.1270648024438
 20
14035.840437405748
 41
1
 42
1
 50
0
  0
INSERT
  2
-013-フック
  8
_0-1_
 10
9351.2180027212471
 20
14027.788721149096
 41
1.6666666666666667
 42
1.6666666666666667
 50
90
  0
LINE
  8
_0-1_
  6
CONTINUOUS
 62
    7
 10
8497.0079241774401
 20
14058.838484280748
 11
8647.0079241774401
 21
14058.838484280748
  0
LINE
  8
_0-1_
  6
CONTINUOUS
 62
    7
 10
8497.0079241774401
 20
14058.838484280746
 11
8497.0079241774401
 21
14012.841413968246
  0
LINE
  8
_0-1_
  6
CONTINUOUS
 62
    7
 10
8497.0079241774401
 20
14012.841413968248
 11
8647.0079241774401
 21
14012.841413968248
  0
LINE
  8
_0-1_
  6
CONTINUOUS
 62
    7
 10
8497.0079241774401
 20
14035.84043740575
 11
8328.1270648024438
 21
14035.84043740575
  0
LINE
  8
_0-1_
  6
CONTINUOUS
 62
    7
 10
6371.9593896964525
 20
13650.405867762405
 11
8253.1270648024438
 21
14002.269008834319
  0
TEXT
  8
_f-2_
 62
    7
 10
17361.75181448715
 20
15137.369446412102
 40
180
 41
1
 50
0
  1
型式・・・・・・・
  0
TEXT
  8
_f-2_
 62
    7
 10
17361.75181448715
 20
14845.702779745436
 40
180
 41
1
 50
0
  1
定格荷重・・・・・
  0
TEXT
  8
_f-2_
 62
    7
 10
17361.75181448715
 20
14554.036113078768
 40
180
 41
1
 50
0
  1
旋回半径・・・・・
  0
TEXT
  8
_f-2_
 62
    7
 10
17361.75181448715
 20
14262.369446412102
 40
180
 41
1
 50
0
  1
基礎自立高さ・・・
  0
TEXT
  8
_f-2_
 62
    7
 10
17361.75181448715
 20
13970.702779745434
 40
180
 41
1
 50
0
  1
巻上最大揚程・・・
  0
TEXT
  8
_f-2_
 62
    7
 10
17574.714777450114
 20
13241.536113078768
 40
180
 41
1
 50
0
  1
速度
  0
TEXT
  8
_f-2_
 62
    7
 10
17472.862925598263
 20
12074.8694464121
 40
180
 41
1
 50
0
  1
電動機
  0
TEXT
  8
_f-2_
 62
    7
 10
17361.75181448715
 20
11199.869446412102
 40
180
 41
1
 50
0
  1
安全装置・・・・・
  0
TEXT
  8
_f-2_
 62
    7
 10
17361.75181448715
 20
10762.369446412102
 40
180
 41
1
 50
0
  1
操作方法・・・・・
  0
TEXT
  8
_f-2_
 62
    7
 10
17361.75181448715
 20
10470.702779745436
 40
180
 41
1
 50
0
  1
電源・・・・・・・
  0
TEXT
  8
_f-2_
 62
    7
 10
20247.126776323523
 20
15137.369446412102
 40
180
 41
1
 50
0
  1
LC-1000-10  クライミングクレーン
  0
TEXT
  8
_f-2_
 62
    7
 10
21265.645294842045
 20
11637.3694464121
 40
180
 41
1
 50
0
  1
巻上装置利用
  0
TEXT
  8
_f-2_
 62
    7
 10
20552.682331879081
 20
11054.036113078768
 40
180
 41
1
 50
0
  1
クライミング時落下防止装置
  0
TEXT
  8
_f-2_
 62
    7
 10
21432.311961508713
 20
14845.702779745436
 40
180
 41
1
 50
0
  1
1000
  0
TEXT
  8
_f-2_
 62
    7
 10
21228.608257805005
 20
14554.036113078768
 40
180
 41
1
 50
0
  1
10.00 
  0
TEXT
  8
_f-2_
 62
    7
 10
21330.460109656859
 20
14262.369446412102
 40
180
 41
1
 50
0
  1
12.42
  0
TEXT
  8
_f-2_
 62
    7
 10
21330.460109656859
 20
13970.702779745434
 40
180
 41
1
 50
0
  1
50.0 
  0
TEXT
  8
_f-2_
 62
    7
 10
20923.052702249453
 20
13679.036113078768
 40
180
 41
1
 50
0
  1
15.6/18.7
  0
TEXT
  8
_f-2_
 62
    7
 10
21024.904554101304
 20
13387.369446412104
 40
180
 41
1
 50
0
  1
8.5/10.1
  0
TEXT
  8
_f-2_
 62
    7
 10
20923.052702249453
 20
13095.702779745436
 40
180
 41
1
 50
0
  1
0.61/0.73
  0
TEXT
  8
_f-2_
 62
    7
 10
21126.756405953154
 20
12804.03611307877
 40
180
 41
1
 50
0
  1
8.0/9.7
  0
TEXT
  8
_f-2_
 62
    7
 10
21534.163813360563
 20
12512.369446412102
 40
180
 41
1
 50
0
  1
3.7
  0
TEXT
  8
_f-2_
 62
    7
 10
21534.163813360563
 20
12220.702779745434
 40
180
 41
1
 50
0
  1
2.2
  0
TEXT
  8
_f-2_
 62
    7
 10
21534.163813360563
 20
11929.036113078768
 40
180
 41
1
 50
0
  1
0.4
  0
TEXT
  8
_f-2_
 62
    7
 10
21913.793442990191
 20
14845.702779745436
 40
180
 41
1
 50
0
  1
kg
  0
TEXT
  8
_f-2_
 62
    7
 10
21913.793442990191
 20
14554.036113078768
 40
180
 41
1
 50
0
  1
m
  0
TEXT
  8
_f-2_
 62
    7
 10
21913.793442990191
 20
14262.369446412102
 40
180
 41
1
 50
0
  1
m
  0
TEXT
  8
_f-2_
 62
    7
 10
21913.793442990191
 20
13970.702779745434
 40
180
 41
1
 50
0
  1
m
  0
TEXT
  8
_f-2_
 62
    7
 10
21913.793442990191
 20
13679.036113078768
 40
180
 41
1
 50
0
  1
m/min
  0
TEXT
  8
_f-2_
 62
    7
 10
21913.793442990191
 20
13387.369446412104
 40
180
 41
1
 50
0
  1
m/min
  0
TEXT
  8
_f-2_
 62
    7
 10
21913.793442990191
 20
13095.702779745436
 40
180
 41
1
 50
0
  1
Ｒ・Ｐ・Ｍ
  0
TEXT
  8
_f-2_
 62
    7
 10
21913.793442990191
 20
12804.03611307877
 40
180
 41
1
 50
0
  1
m/min
  0
TEXT
  8
_f-2_
 62
    7
 10
21913.793442990191
 20
12512.369446412102
 40
180
 41
1
 50
0
  1
kw
  0
TEXT
  8
_f-2_
 62
    7
 10
21913.793442990191
 20
12220.702779745434
 40
180
 41
1
 50
0
  1
kw
  0
TEXT
  8
_f-2_
 62
    7
 10
21913.793442990191
 20
11929.036113078768
 40
180
 41
1
 50
0
  1
kw
  0
TEXT
  8
_f-2_
 62
    7
 10
22913.793442990191
 20
12512.369446412102
 40
180
 41
1
 50
0
  1
4P
  0
TEXT
  8
_f-2_
 62
    7
 10
22913.793442990191
 20
12220.702779745434
 40
180
 41
1
 50
0
  1
4P
  0
TEXT
  8
_f-2_
 62
    7
 10
22913.793442990191
 20
11929.036113078768
 40
180
 41
1
 50
0
  1
4P
  0
TEXT
  8
_f-2_
 62
    7
 10
19839.719368916118
 20
11345.702779745434
 40
180
 41
1
 50
0
  1
過巻防止・起伏・旋回・荷重：各制限装置付
  0
TEXT
  8
_f-2_
 62
    7
 10
20043.423072619822
 20
10762.369446412102
 40
180
 41
1
 50
0
  1
押しボタン式遠隔操作（コード50ｍ付）
  0
TEXT
  8
_f-2_
 62
    7
 10
19839.719368916118
 20
10470.702779745436
 40
180
 41
1
 50
0
  1
200/220ｖ　　　　　50/60Hz           3相
  0
TEXT
  8
_f-2_
 62
    7
 10
18596.57743448313
 20
13679.036113078768
 40
180
 41
1
 50
0
  1
巻上・・･
  0
TEXT
  8
_f-2_
 62
    7
 10
18596.57743448313
 20
13387.369446412102
 40
180
 41
1
 50
0
  1
起伏・・･
  0
TEXT
  8
_f-2_
 62
    7
 10
18596.577434483133
 20
13095.702779745436
 40
180
 41
1
 50
0
  1
旋回・・･
  0
TEXT
  8
_f-2_
 62
    7
 10
18698.429286334984
 20
12804.036113078768
 40
180
 41
1
 50
0
  1
ｸﾗｲﾐﾝｸﾞ
  0
TEXT
  8
_f-2_
 62
    7
 10
18596.577434483133
 20
12512.369446412102
 40
180
 41
1
 50
0
  1
巻上・・･
  0
TEXT
  8
_f-2_
 62
    7
 10
18596.577434483133
 20
12220.702779745434
 40
180
 41
1
 50
0
  1
起伏・・･
  0
TEXT
  8
_f-2_
 62
    7
 10
18596.577434483133
 20
11929.036113078768
 40
180
 41
1
 50
0
  1
旋回・・･
  0
TEXT
  8
_f-2_
 62
    7
 10
18698.429286334984
 20
11637.3694464121
 40
180
 41
1
 50
0
  1
ｸﾗｲﾐﾝｸﾞ
  0
LINE
  8
_f-2_
  6
CONTINUOUS
 62
    7
 10
17278.418481153818
 20
15385.054631597288
 11
24478.418481153818
 21
15385.054631597288
  0
LINE
  8
_f-2_
  6
CONTINUOUS
 62
    7
 10
17278.418481153818
 20
15093.38796493062
 11
24478.418481153818
 21
15093.38796493062
  0
LINE
  8
_f-2_
  6
CONTINUOUS
 62
    7
 10
17278.418481153818
 20
14801.721298263954
 11
24478.418481153818
 21
14801.721298263954
  0
LINE
  8
_f-2_
  6
CONTINUOUS
 62
    7
 10
17278.418481153818
 20
14510.054631597288
 11
24478.418481153818
 21
14510.054631597288
  0
LINE
  8
_f-2_
  6
CONTINUOUS
 62
    7
 10
17278.418481153818
 20
14218.387964930622
 11
24478.418481153818
 21
14218.387964930622
  0
LINE
  8
_f-2_
  6
CONTINUOUS
 62
    7
 10
17278.418481153818
 20
13926.721298263952
 11
24478.418481153818
 21
13926.721298263952
  0
LINE
  8
_f-2_
  6
CONTINUOUS
 62
    7
 10
18478.418481153818
 20
13635.054631597288
 11
24478.418481153818
 21
13635.054631597288
  0
LINE
  8
_f-2_
  6
CONTINUOUS
 62
    7
 10
18478.418481153818
 20
13343.38796493062
 11
24478.418481153818
 21
13343.38796493062
  0
LINE
  8
_f-2_
  6
CONTINUOUS
 62
    7
 10
18478.418481153818
 20
13051.721298263954
 11
24478.418481153818
 21
13051.721298263954
  0
LINE
  8
_f-2_
  6
CONTINUOUS
 62
    7
 10
17278.418481153818
 20
12760.054631597286
 11
24478.418481153818
 21
12760.054631597286
  0
LINE
  8
_f-2_
  6
CONTINUOUS
 62
    7
 10
18478.418481153818
 20
12468.38796493062
 11
24478.418481153818
 21
12468.38796493062
  0
LINE
  8
_f-2_
  6
CONTINUOUS
 62
    7
 10
18478.418481153818
 20
12176.721298263952
 11
24478.418481153818
 21
12176.721298263952
  0
LINE
  8
_f-2_
  6
CONTINUOUS
 62
    7
 10
18478.418481153818
 20
11885.054631597286
 11
24478.418481153818
 21
11885.054631597286
  0
LINE
  8
_f-2_
  6
CONTINUOUS
 62
    7
 10
17278.418481153818
 20
11593.38796493062
 11
24478.418481153818
 21
11593.38796493062
  0
LINE
  8
_f-2_
  6
CONTINUOUS
 62
    7
 10
19678.418481153818
 20
11301.721298263952
 11
24478.418481153818
 21
11301.721298263952
  0
LINE
  8
_f-2_
  6
CONTINUOUS
 62
    7
 10
17278.418481153818
 20
11010.054631597288
 11
24478.418481153818
 21
11010.054631597288
  0
LINE
  8
_f-2_
  6
CONTINUOUS
 62
    7
 10
17278.418481153818
 20
10718.38796493062
 11
24478.418481153818
 21
10718.38796493062
  0
LINE
  8
_f-2_
  6
CONTINUOUS
 62
    7
 10
17278.418481153818
 20
10426.721298263954
 11
24478.418481153818
 21
10426.721298263954
  0
LINE
  8
_f-2_
  6
CONTINUOUS
 62
    7
 10
17278.418481153818
 20
15385.054631597288
 11
17278.418481153818
 21
10426.721298263954
  0
LINE
  8
_f-2_
  6
CONTINUOUS
 62
    7
 10
18478.418481153818
 20
13926.721298263952
 11
18478.418481153818
 21
11593.38796493062
  0
LINE
  8
_f-2_
  6
CONTINUOUS
 62
    7
 10
19678.418481153818
 20
15385.054631597288
 11
19678.418481153818
 21
10426.721298263954
  0
LINE
  8
_f-2_
  6
CONTINUOUS
 62
    7
 10
24478.418481153818
 20
15385.054631597288
 11
24478.418481153818
 21
10426.721298263954
  0
INSERT
  2
-011-旋回____平面
  8
_0-3_
 10
4119.0442828689256
 20
3806.1860788674339
 41
1
 42
1
 50
270
  0
INSERT
  2
-028-踊り場
  8
_0-3_
 10
3266.2685097491712
 20
4605.8404374057473
 41
1
 42
1
 50
0
  0
LINE
  8
_0-2_
  6
CONTINUOUS
 62
    4
 10
11798.494573390148
 20
4035.8404374057482
 11
10678.236757064677
 21
4035.8404374057482
  0
LINE
  8
_0-2_
  6
CONTINUOUS
 62
    4
 10
11753.239359053576
 20
4530.8404374057482
 11
11706.651930935122
 21
4704.7070861377797
  0
LINE
  8
_0-2_
  6
CONTINUOUS
 62
    4
 10
11753.239359053576
 20
4530.8404374057482
 11
11799.826787172031
 21
4704.7070861377797
  0
LINE
  8
_0-2_
  6
CONTINUOUS
 62
    4
 10
11753.239359053576
 20
4530.8404374057482
 11
10678.236757064677
 21
4530.8404374057482
  0
LINE
  8
_0-2_
  6
CONTINUOUS
 62
    4
 10
11753.239359053576
 20
4035.8404374057482
 11
10678.236757064677
 21
4035.8404374057482
  0
TEXT
  8
_0-2_
 62
    7
 10
11723.239359053576
 20
4633.5614249660557
 40
180
 41
1
 50
90
  1
495
  0
LINE
  8
_0-2_
  6
CONTINUOUS
 62
    4
 10
11753.239359053576
 20
4904.3270679757634
 11
11753.239359053576
 21
4035.8404374057482
  0
LINE
  8
_0-2_
  6
CONTINUOUS
 62
    4
 10
11749.063943898011
 20
4035.8404374057482
 11
10931.209951906258
 21
4035.8404374057482
  0
LINE
  8
_0-6_
  6
CONTINUOUS
 62
    4
 10
21210.871180142083
 20
7307.7011460889198
 11
21917.977961328626
 21
8014.8079272754667
  0
LINE
  8
_0-6_
  6
CONTINUOUS
 62
    4
 10
21210.871180142083
 20
7307.7011460889198
 11
21300.871180142083
 21
7463.5857187701195
  0
LINE
  8
_0-6_
  6
CONTINUOUS
 62
    4
 10
21210.871180142083
 20
7307.7011460889198
 11
21366.755752823279
 21
7397.7011460889207
  0
LINE
  8
_0-6_
  6
CONTINUOUS
 62
    4
 10
21917.977961328626
 20
8014.8079272754667
 11
21762.09338864743
 21
7924.8079272754667
  0
LINE
  8
_0-6_
  6
CONTINUOUS
 62
    4
 10
21917.977961328626
 20
8014.8079272754667
 11
21827.977961328626
 21
7858.9233545942679
  0
LINE
  8
_0-6_
  6
CONTINUOUS
 62
    4
 10
21210.871180142083
 20
7307.7011460889198
 11
21663.82188280829
 21
6854.7504434227112
  0
LINE
  8
_0-6_
  6
CONTINUOUS
 62
    4
 10
21917.977961328626
 20
8014.8079272754667
 11
22370.92866399484
 21
7561.8572246092581
  0
TEXT
  8
_0-6_
 62
    7
 10
21415.93214668618
 20
7555.1885195042114
 40
180
 41
1
 50
45
  1
1000
  0
LINE
  8
_0-6_
  6
CONTINUOUS
 62
    4
 10
22076.238113419287
 20
6322.1261488417749
 11
22903.553002991663
 21
7149.4410384141465
  0
LINE
  8
_0-6_
  6
CONTINUOUS
 62
    4
 10
22076.238113419287
 20
6322.1261488417749
 11
22166.238113419287
 21
6478.0107215229737
  0
LINE
  8
_0-6_
  6
CONTINUOUS
 62
    4
 10
22076.238113419287
 20
6322.1261488417749
 11
22232.122686100491
 21
6412.1261488417749
  0
LINE
  8
_0-6_
  6
CONTINUOUS
 62
    4
 10
22903.553002991663
 20
7149.4410384141465
 11
22747.668430310463
 21
7059.4410384141465
  0
LINE
  8
_0-6_
  6
CONTINUOUS
 62
    4
 10
22903.553002991663
 20
7149.4410384141465
 11
22813.553002991663
 21
6993.5564657329478
  0
LINE
  8
_0-6_
  6
CONTINUOUS
 62
    4
 10
22076.238113419287
 20
6322.1261488417749
 11
21673.947925339686
 21
6724.4163369213766
  0
LINE
  8
_0-6_
  6
CONTINUOUS
 62
    4
 10
22903.553002991663
 20
7149.4410384141465
 11
22501.262814912061
 21
7551.7312264937482
  0
TEXT
  8
_0-6_
 62
    7
 10
22511.108761641073
 20
6460.011948965207
 40
180
 41
1
 50
45
  1
1170
  0
LINE
  8
_0-6_
  6
CONTINUOUS
 62
    4
 10
22422.510229044954
 20
7755.8212055285076
 11
22210.37819468899
 21
7967.9532398844722
  0
LINE
  8
_0-6_
  6
CONTINUOUS
 62
    4
 10
22563.931511495888
 20
7614.3999230775753
 11
22776.063545851852
 21
7402.2678887216107
  0
LINE
  8
_0-6_
  6
CONTINUOUS
 62
    4
 10
22422.510229044954
 20
7755.8212055285076
 11
22563.931511495888
 21
7614.3999230775753
  0
LINE
  8
_0-6_
  6
CONTINUOUS
 62
    4
 10
22422.510229044954
 20
7755.8212055285076
 11
22266.625656363754
 21
7845.8212055285076
  0
LINE
  8
_0-6_
  6
CONTINUOUS
 62
    4
 10
22422.510229044954
 20
7755.8212055285076
 11
22332.510229044954
 21
7911.7057782097063
  0
LINE
  8
_0-6_
  6
CONTINUOUS
 62
    4
 10
22563.931511495888
 20
7614.3999230775753
 11
22653.931511495888
 21
7458.5153503963757
  0
LINE
  8
_0-6_
  6
CONTINUOUS
 62
    4
 10
22563.931511495888
 20
7614.3999230775753
 11
22719.816084177084
 21
7524.3999230775753
  0
LINE
  8
_0-6_
  6
CONTINUOUS
 62
    4
 10
22422.510229044954
 20
7755.8212055285076
 11
22359.841532461127
 21
7693.1525089446823
  0
LINE
  8
_0-6_
  6
CONTINUOUS
 62
    4
 10
22563.931511495888
 20
7614.3999230775753
 11
22501.262814912061
 21
7551.7312264937482
  0
TEXT
  8
_0-6_
 62
    7
 10
22418.974658245832
 20
7801.7831831988215
 40
180
 41
1
 50
-44.999999999999744
  1
200
  0
LINE
  8
_0-6_
  6
CONTINUOUS
 62
    4
 10
21440.405404750352
 20
6809.0718678659887
 11
21228.273370394389
 21
7021.2039022219533
  0
LINE
  8
_0-6_
  6
CONTINUOUS
 62
    4
 10
21617.18210004699
 20
6632.295172569352
 11
21829.314134402954
 21
6420.1631382133874
  0
LINE
  8
_0-6_
  6
CONTINUOUS
 62
    4
 10
21440.405404750352
 20
6809.0718678659887
 11
21617.18210004699
 21
6632.295172569352
  0
LINE
  8
_0-6_
  6
CONTINUOUS
 62
    4
 10
21440.405404750352
 20
6809.0718678659887
 11
21284.520832069153
 21
6899.0718678659887
  0
LINE
  8
_0-6_
  6
CONTINUOUS
 62
    4
 10
21440.405404750352
 20
6809.0718678659887
 11
21350.405404750352
 21
6964.9564405471874
  0
LINE
  8
_0-6_
  6
CONTINUOUS
 62
    4
 10
21617.18210004699
 20
6632.295172569352
 11
21707.18210004699
 21
6476.4105998881532
  0
LINE
  8
_0-6_
  6
CONTINUOUS
 62
    4
 10
21617.18210004699
 20
6632.295172569352
 11
21773.06667272819
 21
6542.295172569352
  0
LINE
  8
_0-6_
  6
CONTINUOUS
 62
    4
 10
21440.405404750352
 20
6809.0718678659887
 11
21521.212816187504
 21
6889.8792793031407
  0
LINE
  8
_0-6_
  6
CONTINUOUS
 62
    4
 10
21617.18210004699
 20
6632.295172569352
 11
21697.989511484142
 21
6713.1025840065031
  0
TEXT
  8
_0-6_
 62
    7
 10
21284.841912889315
 20
6667.6505116286799
 40
180
 41
1
 50
-45
  1
250
  0
LINE
  8
_0-6_
  6
CONTINUOUS
 62
    4
 10
21751.729626854318
 20
8114.8662881944456
 11
22282.059712744231
 21
8114.8662881944456
  0
LINE
  8
_0-6_
  6
CONTINUOUS
 62
    4
 10
21751.729626854318
 20
8114.8662881944456
 11
21925.596275586351
 21
8161.4537163128998
  0
LINE
  8
_0-6_
  6
CONTINUOUS
 62
    4
 10
21751.729626854318
 20
8114.8662881944456
 11
21925.596275586351
 21
8068.2788600759923
  0
LINE
  8
_0-6_
  6
CONTINUOUS
 62
    4
 10
22282.059712744231
 20
8114.8662881944456
 11
22108.193064012201
 21
8161.4537163128998
  0
LINE
  8
_0-6_
  6
CONTINUOUS
 62
    4
 10
22282.059712744231
 20
8114.8662881944456
 11
22108.193064012201
 21
8068.2788600759923
  0
LINE
  8
_0-6_
  6
CONTINUOUS
 62
    4
 10
21751.729626854318
 20
8114.8662881944456
 11
21751.729626854318
 21
7650.7261758598661
  0
LINE
  8
_0-6_
  6
CONTINUOUS
 62
    4
 10
22282.059712744231
 20
8114.8662881944456
 11
22282.059712744231
 21
7650.7261758598661
  0
TEXT
  8
_0-6_
 62
    7
 10
21881.894669799276
 20
8144.8662881944456
 40
180
 41
1
 50
0
  1
530
  0
LINE
  8
_0-6_
  6
CONTINUOUS
 62
    4
 10
21574.952931557684
 20
8339.3706353570888
 11
22458.836408040868
 21
8339.3706353570888
  0
LINE
  8
_0-6_
  6
CONTINUOUS
 62
    4
 10
21574.952931557684
 20
8339.3706353570888
 11
21748.819580289717
 21
8385.9580634755421
  0
LINE
  8
_0-6_
  6
CONTINUOUS
 62
    4
 10
21574.952931557684
 20
8339.3706353570888
 11
21748.819580289717
 21
8292.7832072386336
  0
LINE
  8
_0-6_
  6
CONTINUOUS
 62
    4
 10
22458.836408040868
 20
8339.3706353570888
 11
22284.969759308835
 21
8385.9580634755421
  0
LINE
  8
_0-6_
  6
CONTINUOUS
 62
    4
 10
22458.836408040868
 20
8339.3706353570888
 11
22284.969759308835
 21
8292.7832072386336
  0
LINE
  8
_0-6_
  6
CONTINUOUS
 62
    4
 10
21574.952931557684
 20
8339.3706353570888
 11
21574.952931557684
 21
7473.9494805632285
  0
LINE
  8
_0-6_
  6
CONTINUOUS
 62
    4
 10
22458.836408040868
 20
8339.3706353570888
 11
22458.836408040868
 21
7473.9494805632285
  0
TEXT
  8
_0-6_
 62
    7
 10
21881.894669799276
 20
8369.3706353570888
 40
180
 41
1
 50
0
  1
884
  0
LINE
  8
_0-6_
  6
CONTINUOUS
 62
    4
 10
21496.464078845973
 20
6099.4559903279505
 11
22537.325260752576
 21
6099.4559903279505
  0
LINE
  8
_0-6_
  6
CONTINUOUS
 62
    4
 10
21496.464078845973
 20
6099.4559903279505
 11
21670.33072757801
 21
6146.0434184464048
  0
LINE
  8
_0-6_
  6
CONTINUOUS
 62
    4
 10
21496.464078845973
 20
6099.4559903279505
 11
21670.33072757801
 21
6052.8685622094972
  0
LINE
  8
_0-6_
  6
CONTINUOUS
 62
    4
 10
22537.325260752576
 20
6099.4559903279505
 11
22363.458612020542
 21
6146.0434184464048
  0
LINE
  8
_0-6_
  6
CONTINUOUS
 62
    4
 10
22537.325260752576
 20
6099.4559903279505
 11
22363.458612020542
 21
6052.8685622094972
  0
LINE
  8
_0-6_
  6
CONTINUOUS
 62
    4
 10
21496.464078845973
 20
6099.4559903279505
 11
21496.464078845973
 21
6954.2259963911165
  0
LINE
  8
_0-6_
  6
CONTINUOUS
 62
    4
 10
22537.325260752576
 20
6099.4559903279505
 11
22537.325260752576
 21
6954.2259963911165
  0
TEXT
  8
_0-6_
 62
    7
 10
21836.894669799276
 20
6129.4559903279505
 40
180
 41
1
 50
0
  1
1041
  0
INSERT
  2
-015-____平面
  8
_0-5_
 10
22016.894669799276
 20
7208.7844376182729
 41
0.1666666666666666
 42
0.1666666666666666
 50
45
  0
INSERT
  2
-016-_____平面
  8
_0-5_
 10
21656.567431470121
 20
7556.9781940380371
 41
0.0333333333333333
 42
0.0333333333333333
 50
135
  0
INSERT
  2
-017-M30-1
  8
_0-5_
 10
21574.952931557684
 20
7473.9494805632285
 41
0.1333333333333333
 42
0.1333333333333333
 50
45
  0
INSERT
  2
-017-M30-1
  8
_0-5_
 10
21751.729626854318
 20
7650.7261758598643
 41
-0.1333333333333333
 42
0.1333333333333333
 50
45
  0
INSERT
  2
-016-_____平面
  8
_0-5_
 10
21668.700913379511
 20
6848.4571992891169
 41
0.0333333333333333
 42
0.0333333333333333
 50
225
  0
INSERT
  2
-017-M30-1
  8
_0-5_
 10
21751.729626854318
 20
6766.8426993766807
 41
0.1333333333333333
 42
0.1333333333333333
 50
135
  0
INSERT
  2
-017-M30-1
  8
_0-5_
 10
21574.952931557684
 20
6943.6193946733183
 41
-0.1333333333333333
 42
0.1333333333333333
 50
135
  0
INSERT
  2
-016-_____平面
  8
_0-5_
 10
22377.221908128427
 20
6860.5906811985087
 41
0.0333333333333333
 42
0.0333333333333333
 50
315
  0
INSERT
  2
-017-M30-1
  8
_0-5_
 10
22458.836408040868
 20
6943.6193946733165
 41
0.1333333333333333
 42
0.1333333333333333
 50
225
  0
INSERT
  2
-017-M30-1
  8
_0-5_
 10
22282.059712744231
 20
6766.8426993766807
 41
-0.1333333333333333
 42
0.1333333333333333
 50
225
  0
INSERT
  2
-016-_____平面
  8
_0-5_
 10
22365.088426219038
 20
7569.111675947428
 41
0.0333333333333333
 42
0.0333333333333333
 50
404.99999999999994
  0
INSERT
  2
-017-M30-1
  8
_0-5_
 10
22282.059712744231
 20
7650.7261758598643
 41
0.1333333333333333
 42
0.1333333333333333
 50
315
  0
INSERT
  2
-017-M30-1
  8
_0-5_
 10
22458.836408040868
 20
7473.9494805632285
 41
-0.1333333333333333
 42
0.1333333333333333
 50
315
  0
ARC
  8
_0-4_
  6
CONTINUOUS
 62
    7
 10
4119.0442828689256
 20
4035.84043740575
 40
1689
 50
203.68691512007663
 51
339.77547026473104
  0
LINE
  8
_0-4_
  6
CONTINUOUS
 62
    4
 10
4119.0442828689256
 20
4035.84043740575
 11
2924.7409294448416
 21
2841.537083981671
  0
TEXT
  8
_0-4_
 62
    7
 10
3341.5803769543172
 20
3300.8029383623334
 40
180
 41
1
 50
45.000000000000227
  1
R1689
  0
LINE
  8
_0-4_
  6
CONTINUOUS
 62
    4
 10
2924.7409294448416
 20
2841.537083981671
 11
3014.7409294448416
 21
2997.4216566628702
  0
LINE
  8
_0-4_
  6
CONTINUOUS
 62
    4
 10
2924.7409294448416
 20
2841.537083981671
 11
3080.625502126044
 21
2931.537083981671
  0
TEXT
  8
_0-2_
 62
    7
 10
11723.239359053576
 20
3153.0694130982683
 40
180
 41
1
 50
90
  1
591
  0
LINE
  8
_0-2_
  6
CONTINUOUS
 62
    4
 10
11753.239359053576
 20
3165.2338313275795
 11
11753.239359053576
 21
4035.8404374057482
  0
LINE
  8
_0-2_
  6
CONTINUOUS
 62
    4
 10
11753.239359053576
 20
3444.8404374057486
 11
10935.385367061821
 21
3444.8404374057486
  0
LINE
  8
_0-2_
  6
CONTINUOUS
 62
    4
 10
11753.239359053576
 20
3444.8404374057486
 11
11706.651930935122
 21
3618.7070861377806
  0
LINE
  8
_0-2_
  6
CONTINUOUS
 62
    4
 10
11753.239359053576
 20
3444.8404374057486
 11
11799.826787172031
 21
3618.7070861377806
  0
LINE
  8
_0-2_
  6
CONTINUOUS
 62
    4
 10
11753.239359053576
 20
4035.8404374057482
 11
11706.651930935122
 21
3861.9737886737166
  0
LINE
  8
_0-2_
  6
CONTINUOUS
 62
    4
 10
11753.239359053576
 20
4035.8404374057482
 11
11799.826787172031
 21
3861.9737886737166
  0
LINE
  8
_0-0_
  6
CENTER2
 62
    4
 10
22024.366134146931
 20
4035.8404374057482
 11
10024.366134146927
 21
4035.8404374057482
  0
INSERT
  2
-018-___
  8
_0-0_
 10
17521.553379223049
 20
4035.7226320402342
 41
0.1666666666666666
 42
0.1666666666666666
 50
180
  0
INSERT
  2
-018-___
  8
_0-0_
 10
20521.553379223049
 20
4035.7226320402342
 41
0.1666666666666666
 42
0.1666666666666666
 50
180
  0
INSERT
  2
-018-___
  8
_0-0_
 10
14521.553379223051
 20
4035.7226320402342
 41
0.1666666666666666
 42
0.1666666666666666
 50
180
  0
INSERT
  2
-018-___
  8
_0-0_
 10
11521.553379223051
 20
4035.7226320402342
 41
0.1666666666666666
 42
0.1666666666666666
 50
180
  0
INSERT
  2
-023-__________立面_1_
  8
_0-0_
 10
10968.834931574956
 20
3969.0428439744919
 41
-0.5
 42
0.5
 50
90
  0
INSERT
  2
-024-____立面1
  8
_0-0_
 10
8500.6895777628088
 20
7174.6946135786802
 41
1
 42
1
 50
108.8
  0
INSERT
  2
-027-____平面1
  8
_0-f_
 10
4119.0442828689256
 20
7766.691020792734
 41
1
 42
1
 50
90
  0
LINE
  8
_0-2_
  6
CONTINUOUS
 62
    4
 10
13491.69719780024
 20
4035.8404374057482
 11
13491.69719780024
 21
14035.840437405748
  0
LINE
  8
_0-2_
  6
CONTINUOUS
 62
    4
 10
13491.697197800238
 20
4035.8404374057482
 11
13445.109769681789
 21
4209.7070861377806
  0
LINE
  8
_0-2_
  6
CONTINUOUS
 62
    4
 10
13491.697197800238
 20
4035.8404374057482
 11
13538.284625918697
 21
4209.7070861377806
  0
LINE
  8
_0-2_
  6
CONTINUOUS
 62
    4
 10
13491.697197800242
 20
14035.840437405748
 11
13445.109769681789
 21
13861.973788673715
  0
LINE
  8
_0-2_
  6
CONTINUOUS
 62
    4
 10
13491.697197800242
 20
14035.840437405748
 11
13538.284625918697
 21
13861.973788673715
  0
LINE
  8
_0-2_
  6
CONTINUOUS
 62
    4
 10
13491.697197800238
 20
4035.8404374057482
 11
9560.4273154210532
 21
4035.8404374057482
  0
LINE
  8
_0-2_
  6
CONTINUOUS
 62
    4
 10
13491.697197800242
 20
14035.840437405748
 11
9560.427315421055
 21
14035.840437405748
  0
TEXT
  8
_0-2_
 62
    7
 10
13461.697197800238
 20
8810.8404374057463
 40
180
 41
1
 50
90
  1
10000
  0
LINE
  8
_0-2_
  6
CONTINUOUS
 62
    4
 10
10235.468577533098
 20
3251.9611810581932
 11
6561.6396519052723
 21
14043.762746377135
  0
LINE
  8
_0-2_
  6
CONTINUOUS
 62
    4
 10
10235.468577533098
 20
3251.9611810581932
 11
10135.335366743042
 21
3401.5383855275713
  0
LINE
  8
_0-2_
  6
CONTINUOUS
 62
    4
 10
10235.468577533098
 20
3251.9611810581932
 11
10223.539275461097
 21
3431.5654453507605
  0
LINE
  8
_0-2_
  6
CONTINUOUS
 62
    4
 10
6561.6396519052723
 20
14043.762746377135
 11
6573.5689539772702
 21
13864.158482084566
  0
LINE
  8
_0-2_
  6
CONTINUOUS
 62
    4
 10
6561.6396519052723
 20
14043.762746377135
 11
6661.7728626953249
 21
13894.185541907756
  0
LINE
  8
_0-2_
  6
CONTINUOUS
 62
    4
 10
10235.468577533098
 20
3251.9611810581932
 11
9894.3661341469324
 21
3135.84043740575
  0
LINE
  8
_0-2_
  6
CONTINUOUS
 62
    4
 10
6561.6396519052723
 20
14043.762746377135
 11
6220.5372085191038
 21
13927.642002724693
  0
TEXT
  8
_0-2_
 62
    7
 10
8442.6644183425778
 20
8425.1979093347163
 40
180
 41
1
 50
108.8000000000001
  1
11400
  0
TEXT
  8
_f-1_
 62
    7
 10
18931.370303474352
 20
1424.8546210951167
 40
180
 41
1
 50
0
  1
LC-1000-10
  0
TEXT
  8
_f-1_
 62
    7
 10
18859.230249990942
 20
1011.6888602355959
 40
180
 41
1
 50
0
  1
姿図
  0
TEXT
  8
_f-1_
 62
    7
 10
20597.14972027305
 20
473.91755245018942
 40
180
 41
1
 50
0
  1
1/60
  0
ENDSEC
  0
EOF
