  0
SECTION
  2
HEADER
  9
$EXTMIN
 10
   0.0
 20
   0.0
  9
$EXTMAX
 10
59400.0
 20
42000.0
  9
$LIMMIN
 10
   0.0
 20
   0.0
  9
$LIMMAX
 10
59400.0
 20
42000.0
  9
$LTSCALE
 40
4000.0
  9
$TEXTSTYLE
  7
BIGFONT
  9
$CLAYER
  8
0
  0
ENDSEC
  0
SECTION
  2
TABLES
  0
TABLE
  2
STYLE
 70
     2
  0
STYLE
  2
STANDARD
 70
     0
 40
0.0
 41
1.0
 50
0.0
 71
     0
 42
0.2
  3
TXT
  4
BIGFONT
  0
STYLE
  2
KANJI
 70
    64
 40
0.0
 41
1.0
 50
0.0
 71
     0
 42
0.2
  3
TXT
  4
BIGFONT
  0
ENDTAB
  0
TABLE
  2
LTYPE
 70
     2
  0
LTYPE
  2
CONTINUOUS
 70
    64
  3
_____________________________________________
 72
    65
 73
     0
 40
0.375
  0
LTYPE
  2
HIDDEN
 70
    64
  3
_ _ _ _ _ _ _ _ _ _ _ _ _ _ _ _ _ _ _ _ _ _ _
 72
    65
 73
     2
 40
0.375
 49
0.25
 49
-0.125
  0
LTYPE
  2
CENTER
 70
    64
  3
____ _ ____ _ ____ _ ____ _ ____ _ ____ _ ____
 72
    65
 73
     4
 40
2.0
 49
1.25
 49
-0.25
 49
0.25
 49
-0.25
  0
LTYPE
  2
DASHED
 70
    64
  3
__ __ __ __ __ __ __ __ __ __ __ __ __ __ __
 72
    65
 73
     2
 40
0.75
 49
0.5
 49
-0.25
  0
LTYPE
  2
PHANTOM
 70
    64
  3
_____ _ _ _____ _ _ _____ _ _ _____ _ _ ____
 72
    65
 73
     6
 40
2.5
 49
1.25
 49
-0.25
 49
0.25
 49
-0.25
 49
0.25
 49
-0.25
  0
ENDTAB
  0
TABLE
  2
LAYER
 70
    18
  0
LAYER
  2
L-1-1
 70
     0
 62
4
  6
CONTINUOUS
  0
LAYER
  2
L-1-2
 70
     0
 62
6
  6
CONTINUOUS
  0
LAYER
  2
L-1-3
 70
     0
 62
2
  6
CONTINUOUS
  0
LAYER
  2
L-2-1
 70
     0
 62
4
  6
HIDDEN
  0
LAYER
  2
L-2-2
 70
     0
 62
6
  6
HIDDEN
  0
LAYER
  2
L-2-3
 70
     0
 62
2
  6
HIDDEN
  0
LAYER
  2
L-3-1
 70
     0
 62
4
  6
CENTER
  0
LAYER
  2
L-3-2
 70
     0
 62
6
  6
CENTER
  0
LAYER
  2
L-3-3
 70
     0
 62
2
  6
CENTER
  0
LAYER
  2
L-4-1
 70
     0
 62
4
  6
DASHED
  0
LAYER
  2
L-4-2
 70
     0
 62
6
  6
DASHED
  0
LAYER
  2
L-4-3
 70
     0
 62
2
  6
DASHED
  0
LAYER
  2
L-5-1
 70
     0
 62
4
  6
PHANTOM
  0
LAYER
  2
L-5-2
 70
     0
 62
6
  6
PHANTOM
  0
LAYER
  2
L-5-3
 70
     0
 62
2
  6
PHANTOM
  0
LAYER
  2
TSHIN
 70
     0
 62
3
  6
CENTER
  0
LAYER
  2
SPLIN
 70
    64
 62
3
  6
CONTINUOUS
  0
LAYER
  2
SPTXT
 70
    64
 62
2
  6
CONTINUOUS
  0
LAYER
  2
NTEXT
 70
    64
 62
2
  6
CONTINUOUS
  0
LAYER
  2
KGLIN
 70
    64
 62
3
  6
CONTINUOUS
  0
LAYER
  2
KGTXT
 70
    64
 62
6
  6
CONTINUOUS
  0
ENDTAB
  0
ENDSEC
  0
SECTION
  2
ENTITIES
  0
LINE
  8
L-1-1
 10
-1796.56
 20
-67892.40
 11
-1784.17
 21
-67892.40
  0
LINE
  8
L-1-1
 10
-1782.38
 20
-67892.40
 11
-1763.46
 21
-67892.40
  0
LINE
  8
L-1-1
 10
-1796.56
 20
-67892.40
 11
-1784.17
 21
-67892.40
  0
LINE
  8
L-1-1
 10
-1782.38
 20
-67892.40
 11
-1763.46
 21
-67892.40
  0
LINE
  8
L-1-1
 10
-1796.56
 20
-67892.40
 11
-1784.17
 21
-67892.40
  0
LINE
  8
L-1-1
 10
-1782.38
 20
-67892.40
 11
-1763.46
 21
-67892.40
  0
LINE
  8
L-1-1
 10
-1796.56
 20
-67892.40
 11
-1784.17
 21
-67892.40
  0
LINE
  8
L-1-1
 10
-1782.38
 20
-67892.40
 11
-1763.46
 21
-67892.40
  0
ARC
  8
L-1-1
 10
19864.40
 20
9903.98
 40
7877.47
 50
90.00
 51
105.01
  0
LINE
  8
L-1-1
 10
51535.48
 20
26150.00
 11
53062.44
 21
24623.04
  0
LINE
  8
L-1-1
 10
51372.85
 20
26029.79
 11
52921.02
 21
24481.62
  0
LINE
  8
L-1-1
 10
52809.65
 20
24592.98
 11
52951.07
 21
24734.41
  0
LINE
  8
L-1-1
 10
52944.00
 20
24727.34
 11
53223.53
 21
25211.49
  0
LINE
  8
L-1-1
 10
52944.00
 20
24727.34
 11
53428.15
 21
25006.86
  0
LINE
  8
L-1-1
 10
53223.53
 20
25211.49
 11
53428.15
 21
25006.86
  0
LINE
  8
L-1-1
 10
52537.20
 20
24115.91
 11
52816.72
 21
24600.06
  0
LINE
  8
L-1-1
 10
52332.57
 20
24320.53
 11
52816.72
 21
24600.06
  0
LINE
  8
L-1-1
 10
52332.57
 20
24320.53
 11
52537.20
 21
24115.91
  0
CIRCLE
  8
L-1-1
 10
51535.48
 20
26150.00
 40
0.36
  0
CIRCLE
  8
L-1-1
 10
51372.85
 20
26029.79
 40
0.36
  0
CIRCLE
  8
L-1-1
 10
52809.65
 20
24592.98
 40
0.36
  0
LINE
  8
L-1-1
 10
52951.07
 20
24734.41
 11
53905.67
 21
25689.00
  0
LINE
  8
L-1-1
 10
51855.06
 20
23638.39
 11
52809.65
 21
24592.98
  0
LINE
  8
L-3-1
 10
19864.40
 20
9189.87
 11
19864.40
 21
9741.42
  0
LINE
  8
L-1-1
 10
21254.40
 20
9457.96
 11
21254.40
 21
13140.16
  0
LINE
  8
L-3-1
 10
19654.89
 20
9657.96
 11
20048.30
 21
9657.96
  0
LINE
  8
L-1-1
 10
20864.40
 20
13537.96
 11
21244.40
 21
13537.96
  0
LINE
  8
L-1-1
 10
20864.40
 20
9837.96
 11
20864.40
 21
13537.96
  0
LINE
  8
L-1-1
 10
19964.40
 20
9457.96
 11
21254.40
 21
9457.96
  0
LINE
  8
L-1-1
 10
21244.40
 20
13140.16
 11
21244.40
 21
13537.96
  0
LINE
  8
L-3-1
 10
20354.40
 20
9546.56
 11
20354.40
 21
13098.56
  0
LINE
  8
L-3-1
 10
20379.40
 20
9521.56
 11
21189.40
 21
9521.56
  0
LINE
  8
L-3-1
 10
20379.40
 20
13123.56
 11
21189.40
 21
13123.56
  0
LINE
  8
L-3-1
 10
20354.40
 20
12777.56
 11
21189.40
 21
12777.56
  0
LINE
  8
L-3-1
 10
20354.40
 20
11437.56
 11
21189.40
 21
11437.56
  0
LINE
  8
L-3-1
 10
20354.40
 20
10097.56
 11
21189.40
 21
10097.56
  0
LINE
  8
L-1-1
 10
21189.40
 20
9516.56
 11
21189.40
 21
13140.16
  0
LINE
  8
L-1-1
 10
21189.40
 20
13140.16
 11
21254.40
 21
13140.16
  0
ARC
  8
L-3-1
 10
20379.40
 20
9546.56
 40
25.00
 50
180.00
 51
270.00
  0
ARC
  8
L-3-1
 10
20379.40
 20
13098.56
 40
25.00
 50
90.00
 51
180.00
  0
LINE
  8
L-3-1
 10
20689.40
 20
9521.56
 11
20689.40
 21
13123.56
  0
LINE
  8
L-1-1
 10
21189.40
 20
9516.56
 11
21254.40
 21
9516.56
  0
LINE
  8
L-1-1
 10
19964.40
 20
9837.96
 11
20864.40
 21
9837.96
  0
LINE
  8
L-1-1
 10
19964.40
 20
9457.96
 11
19964.40
 21
9837.96
  0
LINE
  8
L-1-1
 10
15212.31
 20
9392.75
 11
20671.94
 21
13358.36
  0
LINE
  8
L-1-1
 10
15309.40
 20
9259.09
 11
20769.03
 21
13224.70
  0
LINE
  8
L-1-1
 10
20984.40
 20
13207.96
 11
20984.40
 21
13407.96
  0
LINE
  8
L-1-1
 10
20784.40
 20
13407.96
 11
20984.40
 21
13407.96
  0
LINE
  8
L-1-1
 10
20884.40
 20
13207.96
 11
20984.40
 21
13207.96
  0
LINE
  8
L-1-1
 10
20752.44
 20
13275.68
 11
20884.40
 21
13207.96
  0
CIRCLE
  8
L-1-1
 10
20784.40
 20
13337.96
 40
23.00
  0
LINE
  8
L-1-1
 10
20769.03
 20
13224.70
 11
20671.94
 21
13358.36
  0
ARC
  8
L-1-1
 10
20784.40
 20
13337.96
 40
70.00
 50
314.50
 51
242.83
  0
LINE
  8
L-1-1
 10
20671.94
 20
13358.36
 11
20752.10
 21
13400.06
  0
LINE
  8
L-1-1
 10
20769.03
 20
13224.70
 11
20833.47
 21
13288.03
  0
LINE
  8
L-1-1
 10
15309.40
 20
9259.09
 11
15212.31
 21
9392.75
  0
CIRCLE
  8
L-1-1
 10
14864.40
 20
9037.96
 40
56.00
  0
ARC
  8
L-1-1
 10
14702.58
 20
8920.42
 40
45.00
 50
137.07
 51
274.02
  0
LINE
  8
L-1-1
 10
14669.64
 20
8951.07
 11
14814.45
 21
9106.73
  0
ARC
  8
L-1-1
 10
14843.37
 20
8905.26
 40
20.00
 50
274.02
 51
318.15
  0
LINE
  8
L-1-1
 10
14705.74
 20
8875.53
 11
14844.77
 21
8885.31
  0
LINE
  8
L-1-1
 10
14858.26
 20
8891.92
 11
14907.05
 21
8946.38
  0
LINE
  8
L-1-1
 10
14939.92
 20
8962.82
 11
15308.06
 21
8995.14
  0
ARC
  8
L-1-1
 10
14944.29
 20
8913.01
 40
50.00
 50
95.02
 51
138.15
  0
CIRCLE
  8
L-1-1
 10
14702.58
 20
8920.42
 40
18.00
  0
LINE
  8
L-1-1
 10
15432.90
 20
9327.29
 11
15315.36
 21
9489.11
  0
ARC
  8
L-1-1
 10
15443.12
 20
9211.12
 40
100.00
 50
125.99
 51
187.72
  0
LINE
  8
L-1-1
 10
15137.36
 20
9359.82
 11
15315.36
 21
9489.11
  0
ARC
  8
L-1-1
 10
15056.77
 20
9334.65
 40
50.00
 50
35.99
 51
141.89
  0
LINE
  8
L-1-1
 10
14814.45
 20
9106.73
 11
15017.42
 21
9365.51
  0
ARC
  8
L-1-1
 10
15119.73
 20
9384.09
 40
30.00
 50
215.99
 51
305.99
  0
CIRCLE
  8
L-1-1
 10
15280.19
 20
9073.00
 40
23.00
  0
CIRCLE
  8
L-1-1
 10
15056.77
 20
9334.65
 40
16.00
  0
CIRCLE
  8
L-1-1
 10
19864.40
 20
9457.96
 40
23.00
  0
ARC
  8
L-1-1
 10
19864.40
 20
9457.96
 40
75.00
 50
284.82
 51
84.78
  0
LINE
  8
L-1-1
 10
19821.69
 20
9369.07
 11
19883.59
 21
9385.45
  0
LINE
  8
L-1-1
 10
19807.46
 20
9538.47
 11
19871.23
 21
9532.65
  0
LINE
  8
L-1-1
 10
19697.85
 20
9529.27
 11
19807.46
 21
9538.47
  0
LINE
  8
L-1-1
 10
19712.08
 20
9359.86
 11
19821.69
 21
9369.07
  0
LINE
  8
L-1-1
 10
19649.78
 20
9384.74
 11
19712.08
 21
9359.86
  0
LINE
  8
L-1-1
 10
19640.57
 20
9494.35
 11
19697.85
 21
9529.27
  0
LINE
  8
L-1-1
 10
19648.23
 20
9403.17
 11
19762.82
 21
9412.80
  0
LINE
  8
L-1-1
 10
19642.12
 20
9475.91
 11
19756.71
 21
9485.54
  0
LINE
  8
L-1-1
 10
19649.78
 20
9384.74
 11
19648.23
 21
9403.17
  0
LINE
  8
L-1-1
 10
19642.12
 20
9475.91
 11
19640.57
 21
9494.35
  0
LINE
  8
L-1-1
 10
19762.82
 20
9412.80
 11
19756.71
 21
9485.54
  0
LINE
  8
L-1-1
 10
19763.61
 20
9403.50
 11
19755.93
 21
9494.83
  0
ARC
  8
L-1-1
 10
19739.84
 20
9447.49
 40
50.00
 50
298.38
 51
71.22
  0
LINE
  8
L-1-1
 10
19756.84
 20
9484.05
 11
19761.32
 21
9484.42
  0
LINE
  8
L-1-1
 10
19762.70
 20
9414.29
 11
19767.18
 21
9414.67
  0
LINE
  8
L-1-1
 10
19767.18
 20
9414.67
 11
19761.32
 21
9484.42
  0
LINE
  8
L-1-1
 10
15496.23
 20
9129.31
 11
19641.98
 21
9477.56
  0
LINE
  8
L-1-1
 10
15502.62
 20
9053.28
 11
19648.37
 21
9401.53
  0
LINE
  8
L-1-1
 10
20114.40
 20
9457.96
 11
20114.40
 21
9617.96
  0
LINE
  8
L-1-1
 10
19964.40
 20
9617.96
 11
20114.40
 21
9617.96
  0
LINE
  8
L-1-1
 10
15389.01
 20
9036.04
 11
15381.34
 21
9127.37
  0
LINE
  8
L-1-1
 10
15384.35
 20
9292.03
 11
15432.90
 21
9327.29
  0
ARC
  8
L-1-1
 10
19864.40
 20
9457.96
 40
75.00
 50
129.37
 51
274.80
  0
LINE
  8
L-1-1
 10
19821.84
 20
9519.71
 11
19964.40
 21
9617.96
  0
LINE
  8
L-1-1
 10
19886.90
 20
9386.41
 11
20114.40
 21
9457.96
  0
ARC
  8
L-1-1
 10
15405.11
 20
9083.37
 40
50.00
 50
118.38
 51
251.22
  0
LINE
  8
L-1-1
 10
15377.76
 20
9116.20
 11
15382.25
 21
9116.58
  0
CIRCLE
  8
L-1-1
 10
15280.19
 20
9073.00
 40
23.00
  0
LINE
  8
L-1-1
 10
15261.00
 20
9145.50
 11
15322.90
 21
9161.88
  0
LINE
  8
L-1-1
 10
15273.36
 20
8998.31
 11
15337.13
 21
8992.48
  0
LINE
  8
L-1-1
 10
15337.13
 20
8992.48
 11
15446.74
 21
9001.69
  0
LINE
  8
L-1-1
 10
15322.90
 20
9161.88
 11
15432.51
 21
9171.09
  0
LINE
  8
L-1-1
 10
15432.51
 20
9171.09
 11
15494.81
 21
9146.22
  0
LINE
  8
L-1-1
 10
15446.74
 20
9001.69
 11
15504.02
 21
9036.61
  0
LINE
  8
L-1-1
 10
15382.11
 20
9118.19
 11
15496.36
 21
9127.78
  0
LINE
  8
L-1-1
 10
15388.22
 20
9045.44
 11
15502.47
 21
9055.04
  0
LINE
  8
L-1-1
 10
15496.36
 20
9127.78
 11
15494.81
 21
9146.22
  0
LINE
  8
L-1-1
 10
15504.02
 20
9036.61
 11
15502.47
 21
9055.04
  0
LINE
  8
L-1-1
 10
15383.26
 20
9046.53
 11
15387.75
 21
9046.91
  0
LINE
  8
L-1-1
 10
15383.26
 20
9046.53
 11
15377.40
 21
9116.29
  0
LINE
  8
L-1-1
 10
15348.58
 20
9164.04
 11
15344.02
 21
9197.70
  0
ARC
  8
L-1-1
 10
15280.19
 20
9073.00
 40
75.00
 50
104.82
 51
264.78
  0
LINE
  8
L-1-1
 10
15849.40
 20
8427.96
 11
15914.40
 21
8427.96
  0
LINE
  8
L-1-1
 10
15849.40
 20
8427.96
 11
15849.40
 21
9651.32
  0
LINE
  8
L-1-1
 10
15028.00
 20
8433.96
 11
15028.00
 21
8932.96
  0
LINE
  8
L-1-1
 10
15000.80
 20
8432.96
 11
15000.80
 21
8932.96
  0
LINE
  8
L-1-1
 10
15398.40
 20
8429.96
 11
15398.40
 21
8887.96
  0
LINE
  8
L-1-1
 10
15430.40
 20
8429.96
 11
15430.40
 21
8887.96
  0
LINE
  8
L-1-1
 10
14954.40
 20
8932.96
 11
15919.40
 21
8932.96
  0
LINE
  8
L-1-1
 10
15919.40
 20
8867.96
 11
15919.40
 21
8932.96
  0
LINE
  8
L-1-1
 10
14954.40
 20
8887.96
 11
14954.40
 21
9017.96
  0
LINE
  8
L-1-1
 10
14974.40
 20
8867.96
 11
15000.80
 21
8867.96
  0
LINE
  8
L-1-1
 10
14954.40
 20
8887.96
 11
14974.40
 21
8867.96
  0
LINE
  8
L-1-1
 10
14954.40
 20
9017.96
 11
15154.40
 21
9017.96
  0
LINE
  8
L-1-1
 10
15154.40
 20
8937.96
 11
15154.40
 21
9017.96
  0
CIRCLE
  8
L-1-1
 10
20442.40
 20
10217.96
 40
160.00
  0
CIRCLE
  8
L-1-1
 10
20442.40
 20
10837.96
 40
160.00
  0
CIRCLE
  8
L-1-1
 10
20442.40
 20
10837.96
 40
272.50
  0
CIRCLE
  8
L-1-1
 10
20442.40
 20
10217.96
 40
272.50
  0
LINE
  8
L-1-1
 10
11222.31
 20
9787.96
 11
11222.31
 21
13537.96
  0
LINE
  8
L-1-1
 10
8402.31
 20
9737.96
 11
8402.31
 21
13487.96
  0
LINE
  8
L-1-1
 10
9062.31
 20
13537.96
 11
11222.31
 21
13537.96
  0
LINE
  8
L-1-1
 10
9062.31
 20
9457.96
 11
10302.31
 21
9457.96
  0
CIRCLE
  8
L-1-1
 10
9682.31
 20
12037.96
 40
406.40
  0
LINE
  8
L-1-1
 10
10372.31
 20
13137.96
 11
11222.31
 21
13137.96
  0
LINE
  8
L-1-1
 10
10302.31
 20
11237.96
 11
10732.31
 21
11237.96
  0
LINE
  8
L-1-1
 10
10372.31
 20
9507.96
 11
10722.31
 21
9507.96
  0
LINE
  8
L-1-1
 10
10302.31
 20
9937.96
 11
10732.31
 21
9937.96
  0
LINE
  8
L-1-1
 10
10372.31
 20
9507.96
 11
10372.31
 21
9937.96
  0
LINE
  8
L-1-1
 10
10302.31
 20
9457.96
 11
10302.31
 21
11237.96
  0
LINE
  8
L-1-1
 10
10732.31
 20
9937.96
 11
10732.31
 21
11237.96
  0
LINE
  8
L-1-1
 10
8402.31
 20
9737.96
 11
8992.31
 21
9737.96
  0
LINE
  8
L-1-1
 10
10722.31
 20
9507.96
 11
11222.31
 21
9787.96
  0
LINE
  8
L-1-1
 10
9152.31
 20
13237.96
 11
9152.31
 21
13537.96
  0
LINE
  8
L-1-1
 10
10212.31
 20
13237.96
 11
10212.31
 21
13537.96
  0
LINE
  8
L-1-1
 10
9152.31
 20
13237.96
 11
10212.31
 21
13237.96
  0
LINE
  8
L-1-1
 10
9428.10
 20
12734.96
 11
9936.52
 21
12734.96
  0
LINE
  8
L-1-1
 10
9383.13
 20
12763.10
 11
9152.31
 21
13237.96
  0
LINE
  8
L-1-1
 10
9981.49
 20
12763.10
 11
10212.31
 21
13237.96
  0
ARC
  8
L-1-1
 10
9428.10
 20
12784.96
 40
50.00
 50
205.92
 51
270.00
  0
ARC
  8
L-1-1
 10
9936.52
 20
12784.96
 40
50.00
 50
270.00
 51
334.08
  0
LINE
  8
L-3-1
 10
8886.94
 20
10217.96
 11
10337.67
 21
10217.96
  0
LINE
  8
L-1-1
 10
20764.40
 20
9924.96
 11
20864.40
 21
9924.96
  0
LINE
  8
L-1-1
 10
20764.40
 20
10510.96
 11
20864.40
 21
10510.96
  0
LINE
  8
L-1-1
 10
20617.82
 20
10009.43
 11
20764.40
 21
9972.96
  0
LINE
  8
L-1-1
 10
20617.82
 20
10426.49
 11
20764.40
 21
10462.96
  0
LINE
  8
L-1-1
 10
20764.40
 20
11130.96
 11
20864.40
 21
11130.96
  0
LINE
  8
L-1-1
 10
20764.40
 20
10544.96
 11
20864.40
 21
10544.96
  0
LINE
  8
L-1-1
 10
20764.40
 20
9924.96
 11
20764.40
 21
10510.96
  0
LINE
  8
L-1-1
 10
20764.40
 20
10544.96
 11
20764.40
 21
11130.96
  0
LINE
  8
L-1-1
 10
20814.40
 20
9924.96
 11
20814.40
 21
10510.96
  0
LINE
  8
L-1-1
 10
20814.40
 20
10544.96
 11
20814.40
 21
11130.96
  0
LINE
  8
L-1-1
 10
20617.82
 20
10629.43
 11
20764.40
 21
10592.96
  0
LINE
  8
L-1-1
 10
20617.82
 20
11046.49
 11
20764.40
 21
11082.96
  0
CIRCLE
  8
L-1-1
 10
20442.40
 20
10217.96
 40
100.00
  0
CIRCLE
  8
L-1-1
 10
20442.40
 20
10837.96
 40
100.00
  0
LINE
  8
L-1-1
 10
15914.40
 20
8427.96
 11
15914.40
 21
9698.54
  0
LINE
  8
L-1-1
 10
15914.40
 20
8932.96
 11
15914.40
 21
8937.96
  0
LINE
  8
L-1-1
 10
15028.00
 20
8460.16
 11
15849.40
 21
8460.16
  0
LINE
  8
L-1-1
 10
15398.40
 20
8429.96
 11
15430.40
 21
8429.96
  0
LINE
  8
L-1-1
 10
15000.80
 20
8432.96
 11
15398.40
 21
8432.96
  0
LINE
  8
L-1-1
 10
15398.40
 20
8887.96
 11
15430.40
 21
8887.96
  0
LINE
  8
L-1-1
 10
15430.40
 20
8867.96
 11
15919.40
 21
8867.96
  0
LINE
  8
L-1-1
 10
15028.00
 20
8867.96
 11
15398.40
 21
8867.96
  0
LINE
  8
L-1-1
 10
19994.40
 20
11631.56
 11
19994.40
 21
12444.36
  0
LINE
  8
L-1-1
 10
19994.40
 20
12444.36
 11
20244.40
 21
12444.36
  0
LINE
  8
L-1-1
 10
19994.40
 20
11631.56
 11
20244.40
 21
11631.56
  0
LINE
  8
L-1-1
 10
20244.40
 20
11317.96
 11
20244.40
 21
12687.96
  0
LINE
  8
L-1-1
 10
20269.40
 20
11317.96
 11
20269.40
 21
12687.96
  0
LINE
  8
L-1-1
 10
20269.40
 20
11580.76
 11
20799.40
 21
11580.76
  0
LINE
  8
L-1-1
 10
20269.40
 20
12495.16
 11
20799.40
 21
12495.16
  0
LINE
  8
L-1-1
 10
20799.40
 20
11553.96
 11
20799.40
 21
12521.96
  0
LINE
  8
L-1-1
 10
20799.40
 20
11553.96
 11
20831.40
 21
11553.96
  0
LINE
  8
L-1-1
 10
20799.40
 20
12521.96
 11
20831.40
 21
12521.96
  0
LINE
  8
L-1-1
 10
20831.40
 20
11553.96
 11
20831.40
 21
12521.96
  0
ARC
  8
L-1-1
 10
19974.40
 20
11392.96
 40
75.00
 50
90.00
 51
270.00
  0
CIRCLE
  8
L-1-1
 10
19974.40
 20
11392.96
 40
27.50
  0
LINE
  8
L-1-1
 10
19974.40
 20
11467.96
 11
20024.40
 21
11467.96
  0
LINE
  8
L-1-1
 10
19974.40
 20
11317.96
 11
20024.40
 21
11317.96
  0
LINE
  8
L-1-1
 10
20097.87
 20
11442.96
 11
20134.40
 21
11442.96
  0
LINE
  8
L-1-1
 10
20097.87
 20
11342.96
 11
20134.40
 21
11342.96
  0
LINE
  8
L-1-1
 10
20024.40
 20
11317.96
 11
20091.14
 21
11341.79
  0
LINE
  8
L-1-1
 10
20024.40
 20
11467.96
 11
20091.14
 21
11444.12
  0
LINE
  8
L-1-1
 10
20134.40
 20
11342.96
 11
20134.40
 21
11442.96
  0
ARC
  8
L-1-1
 10
20097.87
 20
11322.96
 40
20.00
 50
90.00
 51
109.65
  0
ARC
  8
L-1-1
 10
20097.87
 20
11462.96
 40
20.00
 50
250.35
 51
270.00
  0
LINE
  8
L-1-1
 10
20134.40
 20
11428.96
 11
20244.40
 21
11428.96
  0
LINE
  8
L-1-1
 10
20134.40
 20
11356.96
 11
20244.40
 21
11356.96
  0
LINE
  8
L-1-1
 10
20244.40
 20
11317.96
 11
20269.40
 21
11317.96
  0
LINE
  8
L-1-1
 10
20244.40
 20
12687.96
 11
20269.40
 21
12687.96
  0
ARC
  8
L-1-1
 10
8867.31
 20
12037.96
 40
220.00
 50
108.81
 51
251.19
  0
LINE
  8
L-1-1
 10
8796.36
 20
11829.71
 11
8992.31
 21
11762.96
  0
LINE
  8
L-1-1
 10
8796.36
 20
12246.20
 11
8992.31
 21
12312.96
  0
LINE
  8
L-1-1
 10
8402.31
 20
13487.96
 11
8992.31
 21
13487.96
  0
LINE
  8
L-1-1
 10
19264.40
 20
11237.96
 11
20689.40
 21
11237.96
  0
LINE
  8
L-1-1
 10
19264.40
 20
9937.96
 11
19264.40
 21
11237.96
  0
LINE
  8
L-1-1
 10
19264.40
 20
9937.96
 11
20689.40
 21
9937.96
  0
LINE
  8
L-3-1
 10
9482.31
 20
9869.53
 11
9482.31
 21
10615.17
  0
LINE
  8
L-1-1
 10
9634.31
 20
9940.46
 11
9634.31
 21
10495.46
  0
LINE
  8
L-1-1
 10
9620.31
 20
10997.96
 11
9924.31
 21
10997.96
  0
LINE
  8
L-1-1
 10
9620.31
 20
10677.96
 11
9924.31
 21
10677.96
  0
LINE
  8
L-3-1
 10
9772.31
 20
10502.45
 11
9772.31
 21
11213.41
  0
LINE
  8
L-1-1
 10
9924.31
 20
10552.96
 11
9924.31
 21
11122.96
  0
LINE
  8
L-1-1
 10
9620.31
 20
10552.96
 11
9620.31
 21
11122.96
  0
LINE
  8
L-1-1
 10
8872.31
 20
10565.46
 11
8872.31
 21
11110.46
  0
LINE
  8
L-1-1
 10
8872.31
 20
11110.46
 11
9522.31
 21
11110.46
  0
LINE
  8
L-1-1
 10
8872.31
 20
10565.46
 11
9522.31
 21
10565.46
  0
LINE
  8
L-1-1
 10
8992.31
 20
12312.96
 11
8992.31
 21
13487.96
  0
LINE
  8
L-1-1
 10
8992.31
 20
9737.96
 11
8992.31
 21
10565.46
  0
LINE
  8
L-1-1
 10
8992.31
 20
11110.46
 11
8992.31
 21
11762.96
  0
LINE
  8
L-1-1
 10
10792.31
 20
13057.96
 11
11122.31
 21
13057.96
  0
LINE
  8
L-1-1
 10
10792.31
 20
12527.96
 11
11122.31
 21
12527.96
  0
LINE
  8
L-1-1
 10
11122.31
 20
12527.96
 11
11122.31
 21
13057.96
  0
LINE
  8
L-1-1
 10
10792.31
 20
12527.96
 11
10792.31
 21
13057.96
  0
ARC
  8
L-1-1
 10
8867.31
 20
12037.96
 40
195.00
 50
99.39
 51
260.61
  0
LINE
  8
L-1-1
 10
8835.50
 20
11845.57
 11
9062.31
 21
11808.07
  0
LINE
  8
L-1-1
 10
8835.50
 20
12230.35
 11
9062.31
 21
12267.84
  0
CIRCLE
  8
L-1-1
 10
8867.31
 20
12037.96
 40
165.00
  0
LINE
  8
L-1-1
 10
9267.75
 20
11142.96
 11
9382.74
 21
11361.26
  0
LINE
  8
L-1-1
 10
10096.87
 20
11142.96
 11
9981.87
 21
11361.26
  0
LINE
  8
L-1-1
 10
9426.98
 20
11387.96
 11
9937.63
 21
11387.96
  0
ARC
  8
L-1-1
 10
9426.98
 20
11337.96
 40
50.00
 50
90.00
 51
152.22
  0
ARC
  8
L-1-1
 10
9937.63
 20
11337.96
 40
50.00
 50
27.78
 51
90.00
  0
LINE
  8
L-1-1
 10
9267.75
 20
11142.96
 11
10096.87
 21
11142.96
  0
LINE
  8
L-1-1
 10
9062.31
 20
9457.96
 11
9062.31
 21
10565.46
  0
LINE
  8
L-1-1
 10
9062.31
 20
11110.46
 11
9062.31
 21
13537.96
  0
LINE
  8
L-1-1
 10
8513.31
 20
12672.96
 11
8513.31
 21
13387.96
  0
LINE
  8
L-1-1
 10
8871.31
 20
12672.96
 11
8871.31
 21
13387.96
  0
LINE
  8
L-1-1
 10
8513.31
 20
13387.96
 11
8871.31
 21
13387.96
  0
LINE
  8
L-1-1
 10
8513.31
 20
12672.96
 11
8871.31
 21
12672.96
  0
LINE
  8
L-1-1
 10
10372.31
 20
11237.96
 11
10372.31
 21
13537.96
  0
LINE
  8
L-1-1
 10
15000.80
 20
8432.96
 11
15849.40
 21
8432.96
  0
LINE
  8
L-1-1
 10
9098.31
 20
8432.96
 11
10266.31
 21
8432.96
  0
LINE
  8
L-1-1
 10
15000.80
 20
8937.96
 11
15914.40
 21
8937.96
  0
LINE
  8
L-1-1
 10
9098.31
 20
8937.96
 11
10266.31
 21
8937.96
  0
LINE
  8
L-1-1
 10
9098.31
 20
8432.96
 11
9098.31
 21
9457.96
  0
LINE
  8
L-1-1
 10
10266.31
 20
8432.96
 11
10266.31
 21
9457.96
  0
LINE
  8
L-1-1
 10
46994.40
 20
11631.56
 11
46994.40
 21
12444.36
  0
LINE
  8
L-1-1
 10
24494.40
 20
11631.56
 11
24494.40
 21
12444.36
  0
LINE
  8
L-1-1
 10
28994.40
 20
11631.56
 11
28994.40
 21
12444.36
  0
LINE
  8
L-1-1
 10
33494.40
 20
11631.56
 11
33494.40
 21
12444.36
  0
LINE
  8
L-1-1
 10
37994.40
 20
11631.56
 11
37994.40
 21
12444.36
  0
LINE
  8
L-1-1
 10
42494.40
 20
11631.56
 11
42494.40
 21
12444.36
  0
LINE
  8
L-1-1
 10
21464.40
 20
11307.96
 11
21634.40
 21
11307.96
  0
LINE
  8
L-1-1
 10
21464.40
 20
12767.96
 11
21634.40
 21
12767.96
  0
LINE
  8
L-1-1
 10
21254.40
 20
11437.96
 11
21464.40
 21
11307.96
  0
LINE
  8
L-1-1
 10
21254.40
 20
12637.96
 11
21464.40
 21
12767.96
  0
LINE
  8
L-1-1
 10
21254.40
 20
12157.96
 11
21634.40
 21
12157.96
  0
LINE
  8
L-1-1
 10
21254.40
 20
11917.96
 11
21634.40
 21
11917.96
  0
LINE
  8
L-1-1
 10
21634.40
 20
11307.96
 11
21634.40
 21
11917.96
  0
LINE
  8
L-1-1
 10
21634.40
 20
12157.96
 11
21634.40
 21
12767.96
  0
LINE
  8
L-1-1
 10
51150.40
 20
11232.96
 11
51150.40
 21
12842.96
  0
LINE
  8
L-1-1
 10
51115.40
 20
11566.56
 11
51115.40
 21
12509.36
  0
LINE
  8
L-1-1
 10
51115.40
 20
12509.36
 11
51150.40
 21
12509.36
  0
LINE
  8
L-1-1
 10
51115.40
 20
11566.56
 11
51150.40
 21
11566.56
  0
LINE
  8
L-1-1
 10
48665.40
 20
11662.96
 11
48665.40
 21
11682.96
  0
LINE
  8
L-1-1
 10
48815.40
 20
11592.96
 11
51115.40
 21
11592.96
  0
LINE
  8
L-1-1
 10
48665.40
 20
11682.96
 11
51115.40
 21
11682.96
  0
LINE
  8
L-1-1
 10
48665.40
 20
11662.96
 11
48815.40
 21
11592.96
  0
LINE
  8
L-1-1
 10
48815.40
 20
12482.96
 11
51115.40
 21
12482.96
  0
LINE
  8
L-1-1
 10
48665.40
 20
12392.96
 11
51115.40
 21
12392.96
  0
LINE
  8
L-1-1
 10
48665.40
 20
12412.96
 11
48815.40
 21
12482.96
  0
LINE
  8
L-1-1
 10
48665.40
 20
12392.96
 11
48665.40
 21
12412.96
  0
LINE
  8
L-1-1
 10
18831.37
 20
12479.74
 11
19348.14
 21
12618.21
  0
LINE
  8
L-1-1
 10
17844.72
 20
15514.79
 11
18685.08
 21
15739.97
  0
LINE
  8
L-1-1
 10
18833.44
 20
12472.01
 11
19350.21
 21
12610.48
  0
CIRCLE
  8
L-1-1
 10
19864.40
 20
9657.96
 40
75.00
  0
CIRCLE
  8
L-1-1
 10
19864.40
 20
9657.96
 40
32.50
  0
LINE
  8
L-1-1
 10
18833.44
 20
12472.01
 11
18831.37
 21
12479.74
  0
LINE
  8
L-1-1
 10
19350.21
 20
12610.48
 11
19348.14
 21
12618.21
  0
LINE
  8
L-1-1
 10
19343.31
 20
12616.91
 11
18675.42
 21
15737.38
  0
LINE
  8
L-1-1
 10
19651.85
 20
10015.12
 11
19008.96
 21
11946.27
  0
LINE
  8
L-1-1
 10
18897.18
 20
12282.04
 11
18902.02
 21
12283.33
  0
LINE
  8
L-1-1
 10
19954.36
 20
9681.51
 11
19873.76
 21
10074.58
  0
LINE
  8
L-1-1
 10
19774.72
 20
9633.37
 11
19647.98
 21
10014.08
  0
LINE
  8
L-1-1
 10
19865.05
 20
10072.24
 11
19873.76
 21
10074.58
  0
LINE
  8
L-1-1
 10
19647.98
 20
10014.08
 11
19656.69
 21
10016.41
  0
LINE
  8
L-3-1
 10
19954.25
 20
9682.03
 11
20164.93
 21
9738.48
  0
LINE
  8
L-1-1
 10
19936.85
 20
9677.37
 11
19954.25
 21
9682.03
  0
LINE
  8
L-3-1
 10
19791.96
 20
9638.55
 11
19936.85
 21
9677.37
  0
LINE
  8
L-1-1
 10
19774.55
 20
9633.88
 11
19791.96
 21
9638.55
  0
LINE
  8
L-1-1
 10
19279.75
 20
12603.31
 11
18612.55
 21
15720.53
  0
LINE
  8
L-1-1
 10
18900.43
 20
12493.67
 11
17917.25
 21
15534.23
  0
LINE
  8
L-1-1
 10
17932.65
 20
15486.59
 11
18623.03
 21
15671.58
  0
LINE
  8
L-1-1
 10
18506.09
 20
15536.71
 11
18629.88
 21
15639.57
  0
LINE
  8
L-1-1
 10
18544.99
 20
14999.59
 11
18776.29
 21
14955.53
  0
LINE
  8
L-1-1
 10
18274.54
 20
14429.29
 11
18789.84
 21
14892.24
  0
LINE
  8
L-1-1
 10
18295.51
 20
14364.41
 11
18934.88
 21
14214.59
  0
LINE
  8
L-1-1
 10
18507.55
 20
13708.66
 11
18949.95
 21
14144.15
  0
LINE
  8
L-1-1
 10
18532.10
 20
13632.76
 11
19098.96
 21
13447.98
  0
LINE
  8
L-1-1
 10
18757.72
 20
12935.00
 11
19117.41
 21
13361.79
  0
LINE
  8
L-1-1
 10
18787.07
 20
12844.25
 11
19270.47
 21
12646.68
  0
LINE
  8
L-1-1
 10
18980.22
 20
12571.39
 11
19173.41
 21
12623.15
  0
LINE
  8
L-1-1
 10
18894.49
 20
12620.89
 11
18893.20
 21
12625.72
  0
LINE
  8
L-1-1
 10
19222.90
 20
12708.88
 11
19221.61
 21
12713.71
  0
ARC
  8
L-1-1
 10
19155.29
 20
12690.77
 40
70.00
 50
285.00
 51
15.00
  0
ARC
  8
L-1-1
 10
18962.10
 20
12639.00
 40
70.00
 50
195.00
 51
285.00
  0
LINE
  8
L-1-1
 10
19221.61
 20
12713.71
 11
19254.25
 21
12722.46
  0
LINE
  8
L-1-1
 10
18860.56
 20
12616.97
 11
18893.20
 21
12625.72
  0
LINE
  8
L-1-1
 10
18685.08
 20
15739.97
 11
18680.96
 21
15755.32
  0
LINE
  8
L-1-1
 10
17844.72
 20
15514.79
 11
17838.22
 21
15539.04
  0
LINE
  8
L-1-1
 10
18549.85
 20
15703.73
 11
18541.21
 21
15735.97
  0
LINE
  8
L-1-1
 10
17979.95
 20
15551.03
 11
17969.70
 21
15589.30
  0
LINE
  8
L-3-1
 10
19600.53
 20
9587.25
 11
19774.55
 21
9633.88
  0
LINE
  8
L-1-1
 10
18667.14
 20
15768.29
 11
17068.38
 21
21734.91
  0
LINE
  8
L-1-1
 10
17838.22
 20
15539.04
 11
17834.08
 21
15554.50
  0
LINE
  8
L-1-1
 10
18680.96
 20
15755.32
 11
18676.82
 21
15770.77
  0
LINE
  8
L-1-1
 10
18541.37
 20
15736.01
 11
18676.99
 21
15770.82
  0
LINE
  8
L-1-1
 10
16237.69
 20
21512.33
 11
17078.04
 21
21737.50
  0
LINE
  8
L-1-1
 10
16323.07
 20
21483.44
 11
17018.54
 21
21669.79
  0
LINE
  8
L-1-1
 10
16237.69
 20
21512.33
 11
16233.55
 21
21527.78
  0
LINE
  8
L-1-1
 10
17078.04
 20
21737.50
 11
17069.76
 21
21768.41
  0
LINE
  8
L-1-1
 10
16372.92
 20
21548.56
 11
16368.78
 21
21564.02
  0
LINE
  8
L-1-1
 10
16938.67
 20
21716.72
 11
17073.90
 21
21752.96
  0
LINE
  8
L-1-1
 10
16942.81
 20
21701.27
 11
16934.53
 21
21732.18
  0
LINE
  8
L-1-1
 10
16233.55
 20
21527.78
 11
16229.40
 21
21543.24
  0
LINE
  8
L-1-1
 10
16368.78
 20
21564.02
 11
16364.63
 21
21579.47
  0
LINE
  8
L-1-1
 10
16229.40
 20
21543.24
 11
17069.76
 21
21768.41
  0
LINE
  8
L-1-1
 10
17843.77
 20
15556.98
 11
16247.35
 21
21514.92
  0
LINE
  8
L-1-1
 10
16239.06
 20
21545.83
 11
14642.67
 21
27503.66
  0
LINE
  8
L-1-1
 10
17060.10
 20
21765.82
 11
15463.70
 21
27723.65
  0
LINE
  8
L-1-1
 10
16233.55
 20
21527.78
 11
17073.90
 21
21752.96
  0
LINE
  8
L-1-1
 10
14628.87
 20
27516.52
 11
15469.22
 21
27741.70
  0
LINE
  8
L-1-1
 10
14633.01
 20
27501.07
 11
15473.36
 21
27726.24
  0
LINE
  8
L-1-1
 10
14768.24
 20
27537.30
 11
14758.00
 21
27575.50
  0
LINE
  8
L-1-1
 10
14633.01
 20
27501.07
 11
14622.40
 21
27540.67
  0
LINE
  8
L-1-1
 10
15338.13
 20
27690.01
 11
15329.48
 21
27722.31
  0
LINE
  8
L-1-1
 10
15473.36
 20
27726.24
 11
15465.08
 21
27757.15
  0
LINE
  8
L-1-1
 10
16288.91
 20
21610.95
 11
16984.37
 21
21797.30
  0
LINE
  8
L-1-1
 10
14718.39
 20
27472.18
 11
15413.86
 21
27658.53
  0
LINE
  8
L-1-1
 10
16288.91
 20
21610.95
 11
16984.37
 21
21797.30
  0
LINE
  8
L-1-1
 10
17838.25
 20
15538.94
 11
18680.94
 21
15755.42
  0
LINE
  8
L-1-1
 10
14622.18
 20
27540.61
 11
15465.08
 21
27757.15
  0
LINE
  8
L-1-1
 10
13303.04
 20
33778.24
 11
13486.57
 21
33827.41
  0
LINE
  8
L-1-1
 10
13309.42
 20
33773.74
 11
13483.29
 21
33820.32
  0
LINE
  8
L-1-1
 10
13356.01
 20
33599.87
 11
13529.88
 21
33646.46
  0
LINE
  8
L-1-1
 10
13356.01
 20
33599.87
 11
13307.87
 21
33779.53
  0
LINE
  8
L-1-1
 10
13529.88
 20
33646.46
 11
13481.74
 21
33826.12
  0
LINE
  8
L-1-1
 10
14632.08
 20
27543.15
 11
13303.04
 21
33778.24
  0
LINE
  8
L-1-1
 10
15455.84
 20
27754.78
 11
13486.57
 21
33827.41
  0
LINE
  8
L-1-1
 10
14755.28
 20
27759.52
 11
15238.25
 21
27888.93
  0
LINE
  8
L-1-1
 10
14755.28
 20
27759.52
 11
14237.65
 21
29691.37
  0
LINE
  8
L-1-1
 10
15238.25
 20
27888.93
 11
14720.61
 21
29820.78
  0
LINE
  8
L-1-1
 10
14237.65
 20
29691.37
 11
14720.61
 21
29820.78
  0
LINE
  8
L-1-1
 10
14670.12
 20
27604.55
 11
15391.86
 21
27789.96
  0
LINE
  8
L-1-1
 10
13541.02
 20
32805.69
 11
13766.74
 21
32866.17
  0
LINE
  8
L-1-1
 10
13374.02
 20
33589.16
 11
13519.64
 21
33628.18
  0
LINE
  8
L-1-1
 10
13766.74
 20
32866.17
 11
13519.64
 21
33628.18
  0
LINE
  8
L-1-1
 10
13541.02
 20
32805.69
 11
13374.02
 21
33589.16
  0
LINE
  8
L-1-1
 10
14680.99
 20
27553.58
 11
13560.36
 21
32810.87
  0
LINE
  8
L-1-1
 10
13393.36
 20
33594.35
 11
13390.23
 21
33609.04
  0
LINE
  8
L-1-1
 10
15408.28
 20
27739.35
 11
13747.40
 21
32860.99
  0
LINE
  8
L-1-1
 10
13500.29
 20
33623.00
 11
13495.66
 21
33637.29
  0
LINE
  8
L-1-1
 10
17906.55
 20
15573.81
 11
16310.13
 21
21531.74
  0
LINE
  8
L-1-1
 10
18604.17
 20
15752.13
 11
17005.60
 21
21718.09
  0
LINE
  8
L-1-1
 10
17806.64
 20
15946.70
 11
18585.41
 21
15822.14
  0
LINE
  8
L-1-1
 10
17791.60
 20
16002.84
 11
18403.75
 21
16500.10
  0
LINE
  8
L-1-1
 10
17609.94
 20
16680.80
 11
18388.71
 21
16556.24
  0
LINE
  8
L-1-1
 10
17594.89
 20
16736.94
 11
18207.05
 21
17234.21
  0
LINE
  8
L-1-1
 10
17413.23
 20
17414.91
 11
18192.01
 21
17290.34
  0
LINE
  8
L-1-1
 10
17398.19
 20
17471.05
 11
18010.35
 21
17968.31
  0
LINE
  8
L-1-1
 10
17216.53
 20
18149.01
 11
17995.31
 21
18024.45
  0
LINE
  8
L-1-1
 10
17201.49
 20
18205.15
 11
17813.65
 21
18702.41
  0
LINE
  8
L-1-1
 10
17019.83
 20
18883.12
 11
17798.60
 21
18758.55
  0
LINE
  8
L-1-1
 10
17004.79
 20
18939.25
 11
17616.94
 21
19436.52
  0
LINE
  8
L-1-1
 10
16823.13
 20
19617.22
 11
17601.90
 21
19492.65
  0
LINE
  8
L-1-1
 10
16808.08
 20
19673.36
 11
17420.24
 21
20170.62
  0
LINE
  8
L-1-1
 10
16626.42
 20
20351.32
 11
17405.20
 21
20226.76
  0
LINE
  8
L-1-1
 10
16611.38
 20
20407.46
 11
17223.54
 21
20904.72
  0
LINE
  8
L-1-1
 10
16429.72
 20
21085.43
 11
17208.50
 21
20960.86
  0
LINE
  8
L-1-1
 10
16414.68
 20
21141.56
 11
17026.84
 21
21638.83
  0
LINE
  8
L-1-1
 10
16997.32
 20
21749.00
 11
15400.92
 21
27706.83
  0
LINE
  8
L-1-1
 10
16199.63
 20
21944.13
 11
16978.41
 21
21819.57
  0
LINE
  8
L-1-1
 10
16184.59
 20
22000.27
 11
16796.75
 21
22497.54
  0
LINE
  8
L-1-1
 10
16002.93
 20
22678.24
 11
16781.70
 21
22553.67
  0
LINE
  8
L-1-1
 10
15987.89
 20
22734.37
 11
16600.04
 21
23231.64
  0
LINE
  8
L-1-1
 10
15806.23
 20
23412.34
 11
16585.00
 21
23287.78
  0
LINE
  8
L-1-1
 10
15791.18
 20
23468.48
 11
16403.34
 21
23965.74
  0
LINE
  8
L-1-1
 10
15609.52
 20
24146.44
 11
16388.30
 21
24021.88
  0
LINE
  8
L-1-1
 10
15594.48
 20
24202.58
 11
16206.64
 21
24699.85
  0
LINE
  8
L-1-1
 10
15412.82
 20
24880.55
 11
16191.60
 21
24755.98
  0
LINE
  8
L-1-1
 10
15397.78
 20
24936.69
 11
16009.94
 21
25433.95
  0
LINE
  8
L-1-1
 10
15216.12
 20
25614.65
 11
15994.89
 21
25490.09
  0
LINE
  8
L-1-1
 10
15201.08
 20
25670.79
 11
15813.23
 21
26168.05
  0
LINE
  8
L-1-1
 10
15019.42
 20
26348.76
 11
15798.19
 21
26224.19
  0
LINE
  8
L-1-1
 10
15004.37
 20
26404.89
 11
15616.53
 21
26902.16
  0
LINE
  8
L-1-1
 10
14822.71
 20
27082.86
 11
15601.49
 21
26958.29
  0
LINE
  8
L-1-1
 10
14807.67
 20
27139.00
 11
15419.83
 21
27636.26
  0
LINE
  8
L-3-1
 10
18004.26
 20
16853.23
 11
17679.53
 21
18064.63
  0
LINE
  8
L-1-1
 10
18836.20
 20
12481.03
 11
17854.38
 21
15517.38
  0
LINE
  8
L-1-1
 10
51670.40
 20
10557.96
 11
51670.40
 21
13517.96
  0
LINE
  8
L-1-1
 10
53205.40
 20
9787.96
 11
53205.40
 21
14287.96
  0
LINE
  8
L-1-1
 10
51705.40
 20
14287.96
 11
53205.40
 21
14287.96
  0
LINE
  8
L-1-1
 10
51705.40
 20
9787.96
 11
53205.40
 21
9787.96
  0
LINE
  8
L-1-1
 10
51202.40
 20
10557.96
 11
51202.40
 21
13517.96
  0
LINE
  8
L-1-1
 10
51186.40
 20
10557.96
 11
51186.40
 21
13517.96
  0
LINE
  8
L-1-1
 10
51686.40
 20
10557.96
 11
51686.40
 21
13517.96
  0
LINE
  8
L-1-1
 10
51186.40
 20
13517.96
 11
51686.40
 21
13517.96
  0
LINE
  8
L-1-1
 10
51186.40
 20
10557.96
 11
51686.40
 21
10557.96
  0
LINE
  8
L-1-1
 10
51686.40
 20
13462.96
 11
51705.40
 21
13462.96
  0
LINE
  8
L-1-1
 10
51686.40
 20
13212.96
 11
51705.40
 21
13212.96
  0
LINE
  8
L-1-1
 10
51686.40
 20
10862.96
 11
51705.40
 21
10862.96
  0
LINE
  8
L-1-1
 10
51686.40
 20
10612.96
 11
51705.40
 21
10612.96
  0
LINE
  8
L-1-1
 10
51686.40
 20
12842.96
 11
51702.40
 21
12842.96
  0
LINE
  8
L-1-1
 10
51686.40
 20
11232.96
 11
51702.40
 21
11232.96
  0
LINE
  8
L-1-1
 10
51702.40
 20
11232.96
 11
51702.40
 21
12842.96
  0
LINE
  8
L-1-1
 10
51705.40
 20
9787.96
 11
51705.40
 21
14287.96
  0
LINE
  8
L-1-1
 10
51150.40
 20
12842.96
 11
51186.40
 21
12842.96
  0
LINE
  8
L-1-1
 10
51150.40
 20
11232.96
 11
51186.40
 21
11232.96
  0
LINE
  8
L-5-1
 10
52572.19
 20
14287.96
 11
53205.40
 21
13689.75
  0
LINE
  8
L-5-1
 10
52372.78
 20
14287.96
 11
53205.40
 21
13490.34
  0
LINE
  8
L-5-1
 10
52173.38
 20
14287.96
 11
53205.40
 21
13290.94
  0
LINE
  8
L-5-1
 10
51705.40
 20
13758.92
 11
53205.40
 21
12293.92
  0
LINE
  8
L-5-1
 10
51705.40
 20
13559.51
 11
53205.40
 21
12094.51
  0
LINE
  8
L-5-1
 10
51705.40
 20
13360.11
 11
53205.40
 21
11895.11
  0
LINE
  8
L-5-1
 10
51705.40
 20
12363.09
 11
53205.40
 21
10898.09
  0
LINE
  8
L-5-1
 10
51705.40
 20
12163.68
 11
53205.40
 21
10698.68
  0
LINE
  8
L-5-1
 10
51705.40
 20
11964.28
 11
53205.40
 21
10499.28
  0
LINE
  8
L-5-1
 10
51705.40
 20
10967.26
 11
52919.70
 21
9787.96
  0
LINE
  8
L-5-1
 10
51705.40
 20
10767.85
 11
52720.30
 21
9787.96
  0
LINE
  8
L-5-1
 10
51705.40
 20
10568.45
 11
52485.89
 21
9787.96
  0
LINE
  8
L-1-1
 10
1521.78
 20
1795.34
 11
57846.78
 21
1795.34
  0
LINE
  8
L-1-1
 10
57846.78
 20
1795.34
 11
57846.78
 21
40295.34
  0
LINE
  8
L-1-1
 10
1521.78
 20
1795.34
 11
1521.78
 21
40295.34
  0
LINE
  8
L-1-1
 10
1521.78
 20
40295.34
 11
57846.78
 21
40295.34
  0
LINE
  8
L-1-1
 10
2646.78
 20
2320.34
 11
4896.78
 21
2320.34
  0
LINE
  8
L-1-1
 10
2646.78
 20
13615.34
 11
4896.78
 21
13615.34
  0
LINE
  8
L-1-1
 10
2646.78
 20
2320.34
 11
2646.78
 21
13615.34
  0
LINE
  8
L-1-1
 10
4896.78
 20
2320.34
 11
4896.78
 21
13615.34
  0
LINE
  8
L-1-1
 10
26353.78
 20
21301.56
 11
26353.78
 21
39079.34
  0
LINE
  8
L-1-1
 10
26353.78
 20
21301.56
 11
43538.97
 21
21301.56
  0
LINE
  8
L-1-1
 10
26946.37
 20
21301.56
 11
26946.37
 21
39079.34
  0
LINE
  8
L-1-1
 10
27538.96
 20
21301.56
 11
27538.96
 21
39079.34
  0
LINE
  8
L-1-1
 10
28131.56
 20
21301.56
 11
28131.56
 21
39079.34
  0
LINE
  8
L-1-1
 10
28724.15
 20
21301.56
 11
28724.15
 21
39079.34
  0
LINE
  8
L-1-1
 10
29316.74
 20
21301.56
 11
29316.74
 21
39079.34
  0
LINE
  8
L-1-1
 10
29909.33
 20
21301.56
 11
29909.33
 21
39079.34
  0
LINE
  8
L-1-1
 10
31094.52
 20
22780.08
 11
31094.52
 21
39079.34
  0
LINE
  8
L-1-1
 10
26353.78
 20
25746.01
 11
43538.97
 21
25746.01
  0
LINE
  8
L-1-1
 10
29909.33
 20
22780.08
 11
31687.11
 21
22780.08
  0
LINE
  8
L-1-1
 10
26353.78
 20
39079.34
 11
43538.97
 21
39079.34
  0
LINE
  8
L-1-1
 10
31687.11
 20
22040.82
 11
31687.11
 21
39079.34
  0
LINE
  8
L-1-1
 10
32279.70
 20
22040.82
 11
32279.70
 21
39079.34
  0
LINE
  8
L-1-1
 10
32872.30
 20
22040.82
 11
32872.30
 21
39079.34
  0
LINE
  8
L-1-1
 10
33464.89
 20
21301.56
 11
33464.89
 21
39079.34
  0
LINE
  8
L-1-1
 10
34057.48
 20
22040.82
 11
34057.48
 21
39079.34
  0
LINE
  8
L-1-1
 10
34650.08
 20
22040.82
 11
34650.08
 21
39079.34
  0
LINE
  8
L-1-1
 10
35242.67
 20
22040.82
 11
35242.67
 21
39079.34
  0
LINE
  8
L-1-1
 10
35835.26
 20
21301.56
 11
35835.26
 21
39079.34
  0
LINE
  8
L-1-1
 10
36427.85
 20
21301.56
 11
36427.85
 21
39079.34
  0
LINE
  8
L-1-1
 10
37020.45
 20
22040.82
 11
37020.45
 21
39079.34
  0
LINE
  8
L-1-1
 10
37613.04
 20
21301.56
 11
37613.04
 21
39079.34
  0
LINE
  8
L-1-1
 10
38798.22
 20
21301.56
 11
38798.22
 21
39079.34
  0
LINE
  8
L-1-1
 10
39390.82
 20
21301.56
 11
39390.82
 21
39079.34
  0
LINE
  8
L-1-1
 10
39983.41
 20
22040.82
 11
39983.41
 21
39079.34
  0
LINE
  8
L-1-1
 10
40576.00
 20
22040.82
 11
40576.00
 21
39079.34
  0
LINE
  8
L-1-1
 10
41168.59
 20
22040.82
 11
41168.59
 21
39079.34
  0
LINE
  8
L-1-1
 10
41761.19
 20
22040.82
 11
41761.19
 21
39079.34
  0
LINE
  8
L-1-1
 10
42353.78
 20
21301.56
 11
42353.78
 21
39079.34
  0
LINE
  8
L-1-1
 10
29909.33
 20
22040.82
 11
35835.26
 21
22040.82
  0
LINE
  8
L-1-1
 10
39390.82
 20
22040.82
 11
42353.78
 21
22040.82
  0
LINE
  8
L-1-1
 10
36427.85
 20
22040.82
 11
37613.04
 21
22040.82
  0
LINE
  8
L-1-1
 10
53038.40
 20
10012.96
 11
53038.40
 21
14062.96
  0
ARC
  8
L-1-1
 10
52963.40
 20
14062.96
 40
75.00
 50
0.00
 51
180.00
  0
ARC
  8
L-1-1
 10
52963.40
 20
10012.96
 40
75.00
 50
180.00
 51
0.00
  0
LINE
  8
L-1-1
 10
49879.45
 20
25003.08
 11
49879.45
 21
29503.08
  0
LINE
  8
L-1-1
 10
54379.45
 20
25003.08
 11
54379.45
 21
29503.08
  0
LINE
  8
L-1-1
 10
49879.45
 20
29503.08
 11
54379.45
 21
29503.08
  0
LINE
  8
L-1-1
 10
49879.45
 20
25003.08
 11
54379.45
 21
25003.08
  0
CIRCLE
  8
L-1-1
 10
52129.45
 20
27253.08
 40
445.00
  0
CIRCLE
  8
L-1-1
 10
51706.23
 20
27390.59
 40
15.00
  0
CIRCLE
  8
L-1-1
 10
51769.44
 20
27514.65
 40
15.00
  0
CIRCLE
  8
L-1-1
 10
51867.89
 20
27613.09
 40
15.00
  0
CIRCLE
  8
L-1-1
 10
51991.94
 20
27676.30
 40
15.00
  0
CIRCLE
  8
L-1-1
 10
51706.23
 20
27115.57
 40
15.00
  0
CIRCLE
  8
L-1-1
 10
51769.44
 20
26991.52
 40
15.00
  0
CIRCLE
  8
L-1-1
 10
51867.89
 20
26893.07
 40
15.00
  0
CIRCLE
  8
L-1-1
 10
51991.94
 20
26829.86
 40
15.00
  0
CIRCLE
  8
L-1-1
 10
52129.45
 20
27253.08
 40
445.00
  0
CIRCLE
  8
L-1-1
 10
52552.67
 20
27115.57
 40
15.00
  0
CIRCLE
  8
L-1-1
 10
52489.46
 20
26991.52
 40
15.00
  0
CIRCLE
  8
L-1-1
 10
52391.02
 20
26893.07
 40
15.00
  0
CIRCLE
  8
L-1-1
 10
52266.96
 20
26829.86
 40
15.00
  0
CIRCLE
  8
L-1-1
 10
52552.67
 20
27390.59
 40
15.00
  0
CIRCLE
  8
L-1-1
 10
52489.46
 20
27514.65
 40
15.00
  0
CIRCLE
  8
L-1-1
 10
52391.02
 20
27613.09
 40
15.00
  0
CIRCLE
  8
L-1-1
 10
52266.96
 20
27676.30
 40
15.00
  0
CIRCLE
  8
L-1-1
 10
51684.45
 20
27253.08
 40
15.00
  0
CIRCLE
  8
L-1-1
 10
52574.45
 20
27253.08
 40
15.00
  0
CIRCLE
  8
L-1-1
 10
52129.45
 20
27698.08
 40
15.00
  0
CIRCLE
  8
L-1-1
 10
52129.45
 20
26808.08
 40
15.00
  0
LINE
  8
L-1-1
 10
51786.23
 20
27773.08
 11
52472.68
 21
27773.08
  0
LINE
  8
L-1-1
 10
51786.23
 20
26733.08
 11
52472.68
 21
26733.08
  0
LINE
  8
L-1-1
 10
51609.45
 20
26909.86
 11
51609.45
 21
27596.31
  0
LINE
  8
L-1-1
 10
52649.45
 20
26909.86
 11
52649.45
 21
27596.31
  0
LINE
  8
L-1-1
 10
51648.62
 20
27910.69
 11
51786.23
 21
27773.08
  0
LINE
  8
L-1-1
 10
51471.84
 20
27733.92
 11
51609.45
 21
27596.31
  0
LINE
  8
L-1-1
 10
51471.84
 20
27733.92
 11
51648.62
 21
27910.69
  0
LINE
  8
L-1-1
 10
51012.22
 20
28228.89
 11
51153.64
 21
28370.31
  0
LINE
  8
L-3-1
 10
51041.53
 20
28003.63
 11
51394.53
 21
28356.64
  0
LINE
  8
L-1-1
 10
51012.22
 20
28228.89
 11
51028.13
 21
28212.98
  0
LINE
  8
L-1-1
 10
51153.64
 20
28370.31
 11
51169.55
 21
28354.40
  0
LINE
  8
L-1-1
 10
50950.35
 20
28135.20
 11
51031.67
 21
28053.88
  0
LINE
  8
L-1-1
 10
51247.34
 20
28432.18
 11
51328.65
 21
28350.87
  0
LINE
  8
L-1-1
 10
51252.64
 20
27988.47
 11
51489.52
 21
27751.59
  0
LINE
  8
L-1-1
 10
51111.22
 20
28129.89
 11
51169.55
 21
28071.56
  0
LINE
  8
L-1-1
 10
51394.06
 20
28129.89
 11
51630.94
 21
27893.01
  0
LINE
  8
L-1-1
 10
51252.64
 20
28271.32
 11
51310.98
 21
28212.98
  0
LINE
  8
L-1-1
 10
50950.35
 20
28135.20
 11
51247.34
 21
28432.18
  0
LINE
  8
L-1-1
 10
51031.67
 20
28053.88
 11
51328.65
 21
28350.87
  0
LINE
  8
L-1-1
 10
51091.77
 20
27993.78
 11
51388.76
 21
28290.76
  0
LINE
  8
L-1-1
 10
51173.09
 20
27912.46
 11
51470.07
 21
28209.44
  0
LINE
  8
L-1-1
 10
51091.77
 20
27993.78
 11
51173.09
 21
27912.46
  0
LINE
  8
L-1-1
 10
51388.76
 20
28290.76
 11
51470.07
 21
28209.44
  0
CIRCLE
  8
L-1-1
 10
51033.44
 20
28136.97
 40
30.00
  0
CIRCLE
  8
L-1-1
 10
51245.57
 20
28349.10
 40
30.00
  0
CIRCLE
  8
L-1-1
 10
51174.86
 20
27995.54
 40
30.00
  0
CIRCLE
  8
L-1-1
 10
51386.99
 20
28207.68
 40
30.00
  0
LINE
  8
L-3-1
 10
51143.04
 20
28027.36
 11
51206.68
 21
27963.72
  0
LINE
  8
L-3-1
 10
51001.62
 20
28168.79
 11
51065.26
 21
28105.15
  0
LINE
  8
L-3-1
 10
51355.17
 20
28239.50
 11
51418.81
 21
28175.86
  0
LINE
  8
L-3-1
 10
51213.75
 20
28380.92
 11
51277.39
 21
28317.28
  0
LINE
  8
L-3-1
 10
51143.45
 20
27964.13
 11
51206.68
 21
28027.36
  0
LINE
  8
L-3-1
 10
51355.17
 20
28175.86
 11
51418.43
 21
28239.11
  0
LINE
  8
L-3-1
 10
51002.03
 20
28105.55
 11
51065.26
 21
28168.79
  0
LINE
  8
L-3-1
 10
51213.75
 20
28317.28
 11
51277.39
 21
28380.92
  0
LINE
  8
L-1-1
 10
51648.62
 20
26595.47
 11
51786.23
 21
26733.08
  0
LINE
  8
L-1-1
 10
51471.84
 20
26772.25
 11
51609.45
 21
26909.86
  0
LINE
  8
L-1-1
 10
51471.84
 20
26772.25
 11
51648.62
 21
26595.47
  0
LINE
  8
L-1-1
 10
51012.22
 20
26277.28
 11
51153.64
 21
26135.85
  0
LINE
  8
L-3-1
 10
51041.53
 20
26502.53
 11
51394.53
 21
26149.52
  0
LINE
  8
L-1-1
 10
51012.22
 20
26277.28
 11
51028.13
 21
26293.18
  0
LINE
  8
L-1-1
 10
51153.64
 20
26135.85
 11
51169.55
 21
26151.76
  0
LINE
  8
L-1-1
 10
50950.35
 20
26370.97
 11
51031.67
 21
26452.28
  0
LINE
  8
L-1-1
 10
51247.34
 20
26073.98
 11
51328.65
 21
26155.30
  0
LINE
  8
L-1-1
 10
51252.64
 20
26517.69
 11
51489.52
 21
26754.57
  0
LINE
  8
L-1-1
 10
51111.22
 20
26376.27
 11
51169.55
 21
26434.61
  0
LINE
  8
L-1-1
 10
51394.06
 20
26376.27
 11
51630.94
 21
26613.15
  0
LINE
  8
L-1-1
 10
51252.64
 20
26234.85
 11
51310.98
 21
26293.18
  0
LINE
  8
L-1-1
 10
50950.35
 20
26370.97
 11
51247.34
 21
26073.98
  0
LINE
  8
L-1-1
 10
51031.67
 20
26452.28
 11
51328.65
 21
26155.30
  0
LINE
  8
L-1-1
 10
51091.77
 20
26512.39
 11
51388.76
 21
26215.40
  0
LINE
  8
L-1-1
 10
51173.09
 20
26593.71
 11
51470.07
 21
26296.72
  0
LINE
  8
L-1-1
 10
51091.77
 20
26512.39
 11
51173.09
 21
26593.71
  0
LINE
  8
L-1-1
 10
51388.76
 20
26215.40
 11
51470.07
 21
26296.72
  0
CIRCLE
  8
L-1-1
 10
51033.44
 20
26369.20
 40
30.00
  0
CIRCLE
  8
L-1-1
 10
51245.57
 20
26157.07
 40
30.00
  0
CIRCLE
  8
L-1-1
 10
51174.86
 20
26510.62
 40
30.00
  0
CIRCLE
  8
L-1-1
 10
51386.99
 20
26298.49
 40
30.00
  0
LINE
  8
L-3-1
 10
51143.04
 20
26478.80
 11
51206.68
 21
26542.44
  0
LINE
  8
L-3-1
 10
51001.62
 20
26337.38
 11
51065.26
 21
26401.02
  0
LINE
  8
L-3-1
 10
51355.17
 20
26266.67
 11
51418.81
 21
26330.31
  0
LINE
  8
L-3-1
 10
51213.75
 20
26125.25
 11
51277.39
 21
26188.89
  0
LINE
  8
L-3-1
 10
51143.45
 20
26542.03
 11
51206.68
 21
26478.80
  0
LINE
  8
L-3-1
 10
51355.17
 20
26330.31
 11
51418.43
 21
26267.05
  0
LINE
  8
L-3-1
 10
51002.03
 20
26400.61
 11
51065.26
 21
26337.38
  0
LINE
  8
L-3-1
 10
51213.75
 20
26188.89
 11
51277.39
 21
26125.25
  0
LINE
  8
L-1-1
 10
52472.68
 20
27773.08
 11
52610.28
 21
27910.69
  0
LINE
  8
L-1-1
 10
52649.45
 20
27596.31
 11
52787.06
 21
27733.92
  0
LINE
  8
L-1-1
 10
52610.28
 20
27910.69
 11
52787.06
 21
27733.92
  0
LINE
  8
L-1-1
 10
53105.26
 20
28370.31
 11
53246.68
 21
28228.89
  0
LINE
  8
L-3-1
 10
52864.37
 20
28356.64
 11
53217.38
 21
28003.63
  0
LINE
  8
L-1-1
 10
53230.77
 20
28212.98
 11
53246.68
 21
28228.89
  0
LINE
  8
L-1-1
 10
53089.35
 20
28354.40
 11
53105.26
 21
28370.31
  0
LINE
  8
L-1-1
 10
53227.24
 20
28053.88
 11
53308.55
 21
28135.20
  0
LINE
  8
L-1-1
 10
52930.25
 20
28350.87
 11
53011.57
 21
28432.18
  0
LINE
  8
L-1-1
 10
52769.38
 20
27751.59
 11
53006.26
 21
27988.47
  0
LINE
  8
L-1-1
 10
53089.35
 20
28071.56
 11
53147.69
 21
28129.89
  0
LINE
  8
L-1-1
 10
52627.96
 20
27893.01
 11
52864.84
 21
28129.89
  0
LINE
  8
L-1-1
 10
52947.93
 20
28212.98
 11
53006.26
 21
28271.32
  0
LINE
  8
L-1-1
 10
53011.57
 20
28432.18
 11
53308.55
 21
28135.20
  0
LINE
  8
L-1-1
 10
52930.25
 20
28350.87
 11
53227.24
 21
28053.88
  0
LINE
  8
L-1-1
 10
52870.15
 20
28290.76
 11
53167.13
 21
27993.78
  0
LINE
  8
L-1-1
 10
52788.83
 20
28209.44
 11
53085.81
 21
27912.46
  0
LINE
  8
L-1-1
 10
53085.81
 20
27912.46
 11
53167.13
 21
27993.78
  0
LINE
  8
L-1-1
 10
52788.83
 20
28209.44
 11
52870.15
 21
28290.76
  0
CIRCLE
  8
L-1-1
 10
53225.47
 20
28136.97
 40
30.00
  0
CIRCLE
  8
L-1-1
 10
53013.34
 20
28349.10
 40
30.00
  0
CIRCLE
  8
L-1-1
 10
53084.05
 20
27995.54
 40
30.00
  0
CIRCLE
  8
L-1-1
 10
52871.91
 20
28207.68
 40
30.00
  0
LINE
  8
L-3-1
 10
53052.23
 20
27963.72
 11
53115.87
 21
28027.36
  0
LINE
  8
L-3-1
 10
53193.65
 20
28105.15
 11
53257.29
 21
28168.79
  0
LINE
  8
L-3-1
 10
52840.09
 20
28175.86
 11
52903.73
 21
28239.50
  0
LINE
  8
L-3-1
 10
52981.52
 20
28317.28
 11
53045.16
 21
28380.92
  0
LINE
  8
L-3-1
 10
53052.23
 20
28027.36
 11
53115.46
 21
27964.13
  0
LINE
  8
L-3-1
 10
52840.48
 20
28239.11
 11
52903.73
 21
28175.86
  0
LINE
  8
L-3-1
 10
53193.65
 20
28168.79
 11
53256.88
 21
28105.55
  0
LINE
  8
L-3-1
 10
52981.52
 20
28380.92
 11
53045.16
 21
28317.28
  0
LINE
  8
L-1-1
 10
52649.45
 20
26909.86
 11
52649.45
 21
27773.08
  0
LINE
  8
L-1-1
 10
52649.45
 20
26909.86
 11
52787.06
 21
26772.25
  0
LINE
  8
L-1-1
 10
52472.68
 20
26733.08
 11
52610.28
 21
26595.47
  0
LINE
  8
L-1-1
 10
52610.28
 20
26595.47
 11
52787.06
 21
26772.25
  0
LINE
  8
L-1-1
 10
53105.26
 20
26135.85
 11
53246.68
 21
26277.28
  0
LINE
  8
L-3-1
 10
52880.00
 20
26165.16
 11
53233.01
 21
26518.16
  0
LINE
  8
L-1-1
 10
53089.35
 20
26151.76
 11
53105.26
 21
26135.85
  0
LINE
  8
L-1-1
 10
53230.77
 20
26293.18
 11
53246.68
 21
26277.28
  0
LINE
  8
L-1-1
 10
52930.25
 20
26155.30
 11
53011.57
 21
26073.98
  0
LINE
  8
L-1-1
 10
53227.24
 20
26452.28
 11
53308.55
 21
26370.97
  0
LINE
  8
L-1-1
 10
52627.96
 20
26613.15
 11
52864.84
 21
26376.27
  0
LINE
  8
L-1-1
 10
52947.93
 20
26293.18
 11
53006.26
 21
26234.85
  0
LINE
  8
L-1-1
 10
52769.38
 20
26754.57
 11
53006.26
 21
26517.69
  0
LINE
  8
L-1-1
 10
53089.35
 20
26434.61
 11
53147.69
 21
26376.27
  0
LINE
  8
L-1-1
 10
53011.57
 20
26073.98
 11
53308.55
 21
26370.97
  0
LINE
  8
L-1-1
 10
52930.25
 20
26155.30
 11
53227.24
 21
26452.28
  0
LINE
  8
L-1-1
 10
52870.15
 20
26215.40
 11
53167.13
 21
26512.39
  0
LINE
  8
L-1-1
 10
52788.83
 20
26296.72
 11
53085.81
 21
26593.71
  0
LINE
  8
L-1-1
 10
52788.83
 20
26296.72
 11
52870.15
 21
26215.40
  0
LINE
  8
L-1-1
 10
53085.81
 20
26593.71
 11
53167.13
 21
26512.39
  0
CIRCLE
  8
L-1-1
 10
53013.34
 20
26157.07
 40
30.00
  0
CIRCLE
  8
L-1-1
 10
53225.47
 20
26369.20
 40
30.00
  0
CIRCLE
  8
L-1-1
 10
52871.91
 20
26298.49
 40
30.00
  0
CIRCLE
  8
L-1-1
 10
53084.05
 20
26510.62
 40
30.00
  0
LINE
  8
L-3-1
 10
52840.09
 20
26330.31
 11
52903.73
 21
26266.67
  0
LINE
  8
L-3-1
 10
52981.52
 20
26188.89
 11
53045.16
 21
26125.25
  0
LINE
  8
L-3-1
 10
53052.23
 20
26542.44
 11
53115.87
 21
26478.80
  0
LINE
  8
L-3-1
 10
53193.65
 20
26401.02
 11
53257.29
 21
26337.38
  0
LINE
  8
L-3-1
 10
52840.50
 20
26267.08
 11
52903.73
 21
26330.31
  0
LINE
  8
L-3-1
 10
53052.23
 20
26478.80
 11
53115.48
 21
26542.06
  0
LINE
  8
L-3-1
 10
52981.92
 20
26125.66
 11
53045.16
 21
26188.89
  0
LINE
  8
L-3-1
 10
53193.65
 20
26337.38
 11
53257.29
 21
26401.02
  0
LINE
  8
L-1-1
 10
14864.40
 20
9037.96
 11
13419.65
 21
33710.10
  0
LINE
  8
L-3-1
 10
13754.71
 20
16500.25
 11
15424.67
 21
16598.04
  0
ARC
  8
L-1-1
 10
14425.13
 20
16539.51
 40
100.00
 50
236.05
 51
310.66
  0
LINE
  8
L-1-1
 10
14291.94
 20
16508.63
 11
14369.27
 21
16456.56
  0
LINE
  8
L-1-1
 10
14490.28
 20
16463.65
 11
14561.00
 21
16524.39
  0
LINE
  8
L-1-1
 10
14573.68
 20
16583.57
 11
14482.59
 21
16777.56
  0
LINE
  8
L-1-1
 10
14272.44
 20
16565.93
 11
14340.27
 21
16769.23
  0
ARC
  8
L-1-1
 10
14459.96
 20
16766.94
 40
25.00
 50
25.15
 51
93.35
  0
ARC
  8
L-1-1
 10
14363.98
 20
16761.31
 40
25.00
 50
93.35
 51
161.55
  0
ARC
  8
L-1-1
 10
14319.87
 20
16550.10
 40
50.00
 50
161.55
 51
236.05
  0
ARC
  8
L-1-1
 10
14528.43
 20
16562.32
 40
50.00
 50
310.66
 51
25.15
  0
LINE
  8
L-1-1
 10
14403.91
 20
16713.57
 11
14395.73
 21
16853.33
  0
LINE
  8
L-1-1
 10
14425.88
 20
16714.85
 11
14417.69
 21
16854.61
  0
LINE
  8
L-1-1
 10
14403.91
 20
16713.57
 11
14425.88
 21
16714.85
  0
LINE
  8
L-1-1
 10
14395.73
 20
16853.33
 11
14417.69
 21
16854.61
  0
LINE
  8
L-1-1
 10
14362.52
 20
16786.27
 11
14399.53
 21
16788.44
  0
LINE
  8
L-1-1
 10
14421.49
 20
16789.73
 11
14458.50
 21
16791.89
  0
LINE
  8
L-1-1
 10
12972.06
 20
32932.60
 11
12999.53
 21
32934.21
  0
LINE
  8
L-1-1
 10
13430.98
 20
32909.39
 11
13409.89
 21
33008.33
  0
LINE
  8
L-1-1
 10
12570.98
 20
32895.49
 11
12378.32
 21
33799.37
  0
LINE
  8
L-1-1
 10
12592.72
 20
32924.01
 11
12404.92
 21
33805.04
  0
LINE
  8
L-1-1
 10
12972.06
 20
32932.60
 11
12779.39
 21
33836.48
  0
LINE
  8
L-1-1
 10
12999.53
 20
32934.21
 11
12806.86
 21
33838.09
  0
LINE
  8
L-1-1
 10
12570.98
 20
32895.49
 11
13423.31
 21
32945.40
  0
LINE
  8
L-1-1
 10
12570.98
 20
32895.49
 11
12592.72
 21
32924.01
  0
ARC
  8
L-1-1
 10
12392.05
 20
33800.18
 40
13.60
 50
12.03
 51
192.03
  0
LINE
  8
L-1-1
 10
12779.39
 20
33836.48
 11
12806.86
 21
33838.09
  0
LINE
  8
L-1-1
 10
13283.36
 20
33601.94
 11
13339.91
 21
33605.25
  0
LINE
  8
L-1-1
 10
13307.32
 20
33489.55
 11
13363.87
 21
33492.86
  0
LINE
  8
L-1-1
 10
13430.98
 20
32909.39
 11
13487.53
 21
32912.70
  0
LINE
  8
L-1-1
 10
13409.89
 20
33008.33
 11
13466.45
 21
33011.64
  0
LINE
  8
L-1-1
 10
13307.32
 20
33489.55
 11
13283.36
 21
33601.94
  0
LINE
  8
L-1-1
 10
13437.04
 20
32909.74
 11
13415.95
 21
33008.68
  0
LINE
  8
L-1-1
 10
13313.38
 20
33489.91
 11
13289.42
 21
33602.30
  0
LINE
  8
L-1-1
 10
12592.72
 20
32924.01
 11
12969.19
 21
32946.06
  0
LINE
  8
L-1-1
 10
12996.66
 20
32947.66
 11
13417.57
 21
32972.31
  0
LINE
  8
L-1-1
 10
12471.92
 20
33490.72
 11
12848.40
 21
33512.76
  0
LINE
  8
L-1-1
 10
12875.86
 20
33514.37
 11
13296.77
 21
33539.02
  0
LINE
  8
L-1-1
 10
12466.18
 20
33517.63
 11
12842.66
 21
33539.67
  0
LINE
  8
L-1-1
 10
12870.13
 20
33541.28
 11
13291.04
 21
33565.93
  0
LINE
  8
L-1-1
 10
13427.69
 20
33011.18
 11
13326.70
 21
33484.94
  0
CIRCLE
  8
L-1-1
 10
52963.40
 20
12712.96
 40
44.00
  0
CIRCLE
  8
L-1-1
 10
52963.40
 20
13012.96
 40
44.00
  0
CIRCLE
  8
L-1-1
 10
52963.40
 20
13312.96
 40
44.00
  0
CIRCLE
  8
L-1-1
 10
52963.40
 20
13612.96
 40
44.00
  0
CIRCLE
  8
L-1-1
 10
52963.40
 20
13912.96
 40
44.00
  0
CIRCLE
  8
L-1-1
 10
52963.40
 20
12112.96
 40
44.00
  0
CIRCLE
  8
L-1-1
 10
52963.40
 20
12412.96
 40
44.00
  0
CIRCLE
  8
L-1-1
 10
52963.40
 20
11362.96
 40
44.00
  0
CIRCLE
  8
L-1-1
 10
52963.40
 20
11062.96
 40
44.00
  0
CIRCLE
  8
L-1-1
 10
52963.40
 20
10762.96
 40
44.00
  0
CIRCLE
  8
L-1-1
 10
52963.40
 20
10462.96
 40
44.00
  0
CIRCLE
  8
L-1-1
 10
52963.40
 20
10162.96
 40
44.00
  0
CIRCLE
  8
L-1-1
 10
52963.40
 20
11962.96
 40
44.00
  0
CIRCLE
  8
L-1-1
 10
52963.40
 20
11662.96
 40
44.00
  0
LINE
  8
L-3-1
 10
55938.61
 20
7224.32
 11
56634.40
 21
7224.32
  0
LINE
  8
L-1-1
 10
9585.31
 20
10552.96
 11
9620.31
 21
10552.96
  0
LINE
  8
L-1-1
 10
9585.31
 20
10552.96
 11
9585.31
 21
10577.96
  0
LINE
  8
L-1-1
 10
9585.31
 20
10577.96
 11
9570.31
 21
10650.96
  0
LINE
  8
L-1-1
 10
9585.31
 20
11122.96
 11
9620.31
 21
11122.96
  0
LINE
  8
L-1-1
 10
9585.31
 20
11097.96
 11
9585.31
 21
11122.96
  0
LINE
  8
L-1-1
 10
9570.31
 20
10650.96
 11
9570.31
 21
11024.96
  0
LINE
  8
L-1-1
 10
9570.31
 20
11024.96
 11
9585.31
 21
11097.96
  0
LINE
  8
L-3-1
 10
8746.01
 20
10837.96
 11
10828.09
 21
10837.96
  0
LINE
  8
L-1-1
 10
9924.31
 20
11122.96
 11
9959.31
 21
11122.96
  0
LINE
  8
L-1-1
 10
9924.31
 20
10552.96
 11
9959.31
 21
10552.96
  0
LINE
  8
L-1-1
 10
9959.31
 20
10552.96
 11
9959.31
 21
10577.96
  0
LINE
  8
L-1-1
 10
9959.31
 20
10577.96
 11
9974.31
 21
10650.96
  0
LINE
  8
L-1-1
 10
9924.31
 20
11122.96
 11
9959.31
 21
11122.96
  0
LINE
  8
L-1-1
 10
9959.31
 20
11097.96
 11
9959.31
 21
11122.96
  0
LINE
  8
L-1-1
 10
9974.31
 20
10650.96
 11
9974.31
 21
11024.96
  0
LINE
  8
L-1-1
 10
9974.31
 20
11024.96
 11
9959.31
 21
11097.96
  0
LINE
  8
L-1-1
 10
9522.31
 20
10985.46
 11
9570.31
 21
10985.46
  0
LINE
  8
L-1-1
 10
9522.31
 20
10690.46
 11
9570.31
 21
10690.46
  0
LINE
  8
L-1-1
 10
9522.31
 20
10565.46
 11
9522.31
 21
11110.46
  0
LINE
  8
L-1-1
 10
10152.31
 20
10722.96
 11
10152.31
 21
10952.96
  0
LINE
  8
L-1-1
 10
9974.31
 20
10712.96
 11
10152.31
 21
10722.96
  0
LINE
  8
L-1-1
 10
9974.31
 20
10962.96
 11
10152.31
 21
10952.96
  0
LINE
  8
L-1-1
 10
9330.31
 20
9932.96
 11
9330.31
 21
10502.96
  0
LINE
  8
L-1-1
 10
9295.31
 20
9932.96
 11
9330.31
 21
9932.96
  0
LINE
  8
L-1-1
 10
9295.31
 20
9932.96
 11
9295.31
 21
9957.96
  0
LINE
  8
L-1-1
 10
9295.31
 20
9957.96
 11
9280.31
 21
10030.96
  0
LINE
  8
L-1-1
 10
9295.31
 20
10502.96
 11
9330.31
 21
10502.96
  0
LINE
  8
L-1-1
 10
9295.31
 20
10477.96
 11
9295.31
 21
10502.96
  0
LINE
  8
L-1-1
 10
9280.31
 20
10030.96
 11
9280.31
 21
10404.96
  0
LINE
  8
L-1-1
 10
9280.31
 20
10404.96
 11
9295.31
 21
10477.96
  0
LINE
  8
L-1-1
 10
9634.31
 20
9932.96
 11
9634.31
 21
10502.96
  0
LINE
  8
L-1-1
 10
9634.31
 20
9932.96
 11
9669.31
 21
9932.96
  0
LINE
  8
L-1-1
 10
9669.31
 20
9932.96
 11
9669.31
 21
9957.96
  0
LINE
  8
L-1-1
 10
9669.31
 20
9957.96
 11
9684.31
 21
10030.96
  0
LINE
  8
L-1-1
 10
9634.31
 20
10502.96
 11
9669.31
 21
10502.96
  0
LINE
  8
L-1-1
 10
9669.31
 20
10477.96
 11
9669.31
 21
10502.96
  0
LINE
  8
L-1-1
 10
9684.31
 20
10030.96
 11
9684.31
 21
10404.96
  0
LINE
  8
L-1-1
 10
9684.31
 20
10404.96
 11
9669.31
 21
10477.96
  0
LINE
  8
L-1-1
 10
9684.31
 20
10057.96
 11
9754.31
 21
10057.96
  0
LINE
  8
L-1-1
 10
9330.31
 20
10057.96
 11
9634.31
 21
10057.96
  0
LINE
  8
L-1-1
 10
9684.31
 20
10377.96
 11
9754.31
 21
10377.96
  0
LINE
  8
L-1-1
 10
9330.31
 20
10377.96
 11
9634.31
 21
10377.96
  0
LINE
  8
L-1-1
 10
9754.31
 20
10057.96
 11
9754.31
 21
10377.96
  0
LINE
  8
L-1-1
 10
9824.31
 20
10092.96
 11
9824.31
 21
10342.96
  0
LINE
  8
L-1-1
 10
9102.31
 20
10102.96
 11
9102.31
 21
10332.96
  0
LINE
  8
L-1-1
 10
9102.31
 20
10332.96
 11
9280.31
 21
10342.96
  0
LINE
  8
L-1-1
 10
9102.31
 20
10102.96
 11
9280.31
 21
10092.96
  0
LINE
  8
L-1-1
 10
9754.31
 20
10057.96
 11
9824.31
 21
10092.96
  0
LINE
  8
L-1-1
 10
9754.31
 20
10377.96
 11
9824.31
 21
10342.96
  0
LINE
  8
L-1-1
 10
9824.31
 20
10092.96
 11
9894.31
 21
10057.96
  0
LINE
  8
L-1-1
 10
9824.31
 20
10342.96
 11
9894.31
 21
10377.96
  0
LINE
  8
L-1-1
 10
9894.31
 20
10057.96
 11
9894.31
 21
10377.96
  0
LINE
  8
L-1-1
 10
9894.31
 20
10057.96
 11
10232.31
 21
10057.96
  0
LINE
  8
L-1-1
 10
9894.31
 20
10377.96
 11
10232.31
 21
10377.96
  0
LINE
  8
L-1-1
 10
10232.31
 20
10057.96
 11
10232.31
 21
10377.96
  0
LINE
  8
L-1-1
 10
51111.22
 20
28129.89
 11
51169.55
 21
28071.56
  0
CIRCLE
  8
L-1-1
 10
13419.65
 20
33710.10
 40
170.25
  0
LINE
  8
L-1-1
 10
13419.65
 20
33880.35
 11
16097.69
 21
33880.35
  0
LINE
  8
L-1-1
 10
17824.77
 20
17522.82
 11
18294.38
 21
17508.94
  0
LINE
  8
L-1-1
 10
17824.77
 20
17522.82
 11
18224.47
 21
17769.74
  0
LINE
  8
L-1-1
 10
52620.40
 20
12987.96
 11
52620.40
 21
13237.96
  0
LINE
  8
L-1-1
 10
52620.40
 20
13437.96
 11
52620.40
 21
13687.96
  0
LINE
  8
L-1-1
 10
56562.59
 20
6865.61
 11
56562.59
 21
7607.97
  0
LINE
  8
L-1-1
 10
56043.59
 20
7014.32
 11
56043.59
 21
7434.32
  0
LINE
  8
L-1-1
 10
51186.40
 20
13517.96
 11
51686.40
 21
13517.96
  0
LINE
  8
L-1-1
 10
51686.40
 20
13212.96
 11
51705.40
 21
13212.96
  0
LINE
  8
L-1-1
 10
51686.40
 20
13462.96
 11
51705.40
 21
13462.96
  0
LINE
  8
L-1-1
 10
56543.59
 20
7134.32
 11
56543.59
 21
7314.32
  0
LINE
  8
L-1-1
 10
55877.59
 20
7053.32
 11
55877.59
 21
7095.32
  0
LINE
  8
L-1-1
 10
55903.59
 20
7053.32
 11
55903.59
 21
7095.32
  0
LINE
  8
L-1-1
 10
51202.40
 20
13402.96
 11
51670.40
 21
13402.96
  0
LINE
  8
L-1-1
 10
51202.40
 20
13272.96
 11
51670.40
 21
13272.96
  0
LINE
  8
L-1-1
 10
51202.40
 20
13492.96
 11
51670.40
 21
13492.96
  0
LINE
  8
L-1-1
 10
51202.40
 20
13182.96
 11
51670.40
 21
13182.96
  0
LINE
  8
L-1-1
 10
51020.40
 20
13437.96
 11
52620.40
 21
13437.96
  0
LINE
  8
L-1-1
 10
51020.40
 20
13237.96
 11
52620.40
 21
13237.96
  0
LINE
  8
L-1-1
 10
51186.40
 20
10557.96
 11
51686.40
 21
10557.96
  0
LINE
  8
L-1-1
 10
51686.40
 20
10612.96
 11
51705.40
 21
10612.96
  0
LINE
  8
L-1-1
 10
51686.40
 20
10862.96
 11
51705.40
 21
10862.96
  0
LINE
  8
L-1-1
 10
52620.40
 20
10837.96
 11
52620.40
 21
11087.96
  0
LINE
  8
L-1-1
 10
52620.40
 20
10387.96
 11
52620.40
 21
10637.96
  0
LINE
  8
L-1-1
 10
51186.40
 20
10557.96
 11
51686.40
 21
10557.96
  0
LINE
  8
L-1-1
 10
51686.40
 20
10862.96
 11
51705.40
 21
10862.96
  0
LINE
  8
L-1-1
 10
51686.40
 20
10612.96
 11
51705.40
 21
10612.96
  0
LINE
  8
L-1-1
 10
51202.40
 20
10672.96
 11
51670.40
 21
10672.96
  0
LINE
  8
L-1-1
 10
51202.40
 20
10802.96
 11
51670.40
 21
10802.96
  0
LINE
  8
L-1-1
 10
51202.40
 20
10582.96
 11
51670.40
 21
10582.96
  0
LINE
  8
L-1-1
 10
51202.40
 20
10892.96
 11
51670.40
 21
10892.96
  0
LINE
  8
L-1-1
 10
51020.40
 20
10637.96
 11
52620.40
 21
10637.96
  0
LINE
  8
L-1-1
 10
51020.40
 20
10837.96
 11
52620.40
 21
10837.96
  0
LINE
  8
L-3-1
 10
55833.11
 20
7074.32
 11
56738.20
 21
7074.32
  0
LINE
  8
L-5-1
 10
56043.59
 20
7053.32
 11
56711.19
 21
7053.32
  0
LINE
  8
L-5-1
 10
56043.59
 20
7095.32
 11
56711.19
 21
7095.32
  0
LINE
  8
L-5-1
 10
56043.59
 20
7395.32
 11
56711.19
 21
7395.32
  0
LINE
  8
L-5-1
 10
56043.59
 20
7353.32
 11
56711.17
 21
7353.32
  0
LINE
  8
L-1-1
 10
56059.59
 20
7289.32
 11
56527.59
 21
7289.32
  0
LINE
  8
L-1-1
 10
56059.59
 20
7159.32
 11
56527.59
 21
7159.32
  0
LINE
  8
L-1-1
 10
55913.01
 20
7093.08
 11
55937.59
 21
7093.08
  0
LINE
  8
L-1-1
 10
55913.01
 20
7055.55
 11
55937.59
 21
7055.55
  0
LINE
  8
L-1-1
 10
55903.59
 20
7043.32
 11
55903.59
 21
7105.32
  0
LINE
  8
L-1-1
 10
55907.36
 20
7111.84
 11
55937.59
 21
7111.84
  0
LINE
  8
L-1-1
 10
55907.36
 20
7036.79
 11
55937.59
 21
7036.79
  0
LINE
  8
L-1-1
 10
55903.59
 20
7105.32
 11
55907.36
 21
7111.84
  0
LINE
  8
L-1-1
 10
55907.36
 20
7036.79
 11
55903.59
 21
7043.32
  0
ARC
  8
L-1-1
 10
55912.97
 20
7102.46
 40
9.38
 50
89.76
 51
270.24
  0
ARC
  8
L-1-1
 10
55926.98
 20
7074.32
 40
23.40
 50
126.67
 51
233.33
  0
ARC
  8
L-1-1
 10
55912.97
 20
7046.17
 40
9.38
 50
89.76
 51
270.24
  0
LINE
  8
L-1-1
 10
55937.59
 20
7036.79
 11
55937.59
 21
7111.84
  0
LINE
  8
L-1-1
 10
55971.59
 20
7129.32
 11
55993.59
 21
7129.32
  0
LINE
  8
L-1-1
 10
55971.59
 20
7019.32
 11
55993.59
 21
7019.32
  0
LINE
  8
L-1-1
 10
55877.59
 20
7095.32
 11
55903.59
 21
7095.32
  0
LINE
  8
L-1-1
 10
55877.59
 20
7053.32
 11
55903.59
 21
7053.32
  0
LINE
  8
L-1-1
 10
55877.59
 20
7353.32
 11
55877.59
 21
7395.32
  0
LINE
  8
L-1-1
 10
55903.59
 20
7353.32
 11
55903.59
 21
7395.32
  0
LINE
  8
L-1-1
 10
55993.59
 20
7316.82
 11
56043.59
 21
7316.82
  0
LINE
  8
L-1-1
 10
55947.01
 20
7355.55
 11
55971.59
 21
7355.55
  0
LINE
  8
L-1-1
 10
55947.01
 20
7393.08
 11
55971.59
 21
7393.08
  0
LINE
  8
L-1-1
 10
55937.59
 20
7343.32
 11
55937.59
 21
7405.32
  0
LINE
  8
L-1-1
 10
55941.36
 20
7336.79
 11
55971.59
 21
7336.79
  0
LINE
  8
L-1-1
 10
55941.36
 20
7411.84
 11
55971.59
 21
7411.84
  0
LINE
  8
L-1-1
 10
55941.36
 20
7336.79
 11
55937.59
 21
7343.32
  0
LINE
  8
L-1-1
 10
55937.59
 20
7355.32
 11
55941.36
 21
7361.84
  0
ARC
  8
L-1-1
 10
55946.97
 20
7346.17
 40
9.38
 50
89.76
 51
270.24
  0
ARC
  8
L-1-1
 10
55960.98
 20
7374.32
 40
23.40
 50
126.67
 51
233.33
  0
ARC
  8
L-1-1
 10
55946.97
 20
7402.46
 40
9.38
 50
89.76
 51
270.24
  0
LINE
  8
L-1-1
 10
55971.59
 20
7319.32
 11
55971.59
 21
7429.32
  0
LINE
  8
L-1-1
 10
55913.01
 20
7355.55
 11
55937.59
 21
7355.55
  0
LINE
  8
L-1-1
 10
55913.01
 20
7393.08
 11
55937.59
 21
7393.08
  0
LINE
  8
L-1-1
 10
55903.59
 20
7343.32
 11
55903.59
 21
7405.32
  0
LINE
  8
L-1-1
 10
55907.36
 20
7336.79
 11
55937.59
 21
7336.79
  0
LINE
  8
L-1-1
 10
55907.36
 20
7411.84
 11
55937.59
 21
7411.84
  0
LINE
  8
L-1-1
 10
55907.36
 20
7336.79
 11
55903.59
 21
7343.32
  0
LINE
  8
L-1-1
 10
55903.59
 20
7355.32
 11
55907.36
 21
7361.84
  0
ARC
  8
L-1-1
 10
55912.97
 20
7346.17
 40
9.38
 50
89.76
 51
270.24
  0
ARC
  8
L-1-1
 10
55926.98
 20
7374.32
 40
23.40
 50
126.67
 51
233.33
  0
ARC
  8
L-1-1
 10
55912.97
 20
7402.46
 40
9.38
 50
89.76
 51
270.24
  0
LINE
  8
L-1-1
 10
55937.59
 20
7336.79
 11
55937.59
 21
7411.84
  0
LINE
  8
L-1-1
 10
55971.59
 20
7319.32
 11
55993.59
 21
7319.32
  0
LINE
  8
L-1-1
 10
55971.59
 20
7429.32
 11
55993.59
 21
7429.32
  0
LINE
  8
L-1-1
 10
55877.59
 20
7353.32
 11
55903.59
 21
7353.32
  0
LINE
  8
L-1-1
 10
55877.59
 20
7395.32
 11
55903.59
 21
7395.32
  0
ARC
  8
L-1-1
 10
56701.54
 20
7063.81
 40
14.25
 50
312.57
 51
47.48
  0
ARC
  8
L-1-1
 10
56701.54
 20
7084.82
 40
14.25
 50
312.52
 51
47.43
  0
ARC
  8
L-1-1
 10
56720.81
 20
7084.82
 40
14.25
 50
132.57
 51
227.48
  0
ARC
  8
L-1-1
 10
56701.54
 20
7384.82
 40
14.25
 50
312.52
 51
47.43
  0
ARC
  8
L-1-1
 10
56701.54
 20
7363.81
 40
14.25
 50
312.57
 51
47.48
  0
ARC
  8
L-1-1
 10
56720.81
 20
7363.81
 40
14.25
 50
132.52
 51
227.43
  0
LINE
  8
L-3-1
 10
55971.94
 20
3824.32
 11
56634.40
 21
3824.32
  0
LINE
  8
L-1-1
 10
56562.59
 20
3699.32
 11
56562.59
 21
3949.32
  0
LINE
  8
L-1-1
 10
56043.59
 20
3330.81
 11
56043.59
 21
4004.32
  0
LINE
  8
L-1-1
 10
56543.59
 20
3330.81
 11
56543.59
 21
4004.32
  0
LINE
  8
L-1-1
 10
56543.59
 20
3949.32
 11
56562.59
 21
3949.32
  0
LINE
  8
L-1-1
 10
56543.59
 20
3699.32
 11
56562.59
 21
3699.32
  0
LINE
  8
L-1-1
 10
55877.59
 20
3703.32
 11
55877.59
 21
3745.32
  0
LINE
  8
L-1-1
 10
55903.59
 20
3703.32
 11
55903.59
 21
3745.32
  0
LINE
  8
L-1-1
 10
55993.59
 20
3781.82
 11
56043.59
 21
3781.82
  0
LINE
  8
L-1-1
 10
55993.59
 20
3666.82
 11
56043.59
 21
3666.82
  0
LINE
  8
L-1-1
 10
55993.59
 20
3981.82
 11
56043.59
 21
3981.82
  0
LINE
  8
L-1-1
 10
55993.59
 20
3866.82
 11
56043.59
 21
3866.82
  0
LINE
  8
L-1-1
 10
55993.59
 20
3666.82
 11
55993.59
 21
3781.82
  0
LINE
  8
L-1-1
 10
55993.59
 20
3866.82
 11
55993.59
 21
3981.82
  0
LINE
  8
L-1-1
 10
56527.59
 20
3924.32
 11
56543.59
 21
3924.32
  0
LINE
  8
L-1-1
 10
56527.59
 20
3724.32
 11
56543.59
 21
3724.32
  0
LINE
  8
L-1-1
 10
56043.59
 20
3924.32
 11
56059.59
 21
3924.32
  0
LINE
  8
L-1-1
 10
56043.59
 20
3724.32
 11
56059.59
 21
3724.32
  0
LINE
  8
L-3-1
 10
55833.11
 20
3924.32
 11
56738.20
 21
3924.32
  0
LINE
  8
L-3-1
 10
55833.11
 20
3724.32
 11
56738.20
 21
3724.32
  0
LINE
  8
L-1-1
 10
56043.59
 20
4004.32
 11
56543.59
 21
4004.32
  0
LINE
  8
L-1-1
 10
56059.59
 20
3669.32
 11
56527.59
 21
3669.32
  0
LINE
  8
L-1-1
 10
55947.01
 20
3743.08
 11
55971.59
 21
3743.08
  0
LINE
  8
L-1-1
 10
55947.01
 20
3705.55
 11
55971.59
 21
3705.55
  0
LINE
  8
L-1-1
 10
55937.59
 20
3693.32
 11
55937.59
 21
3755.32
  0
LINE
  8
L-1-1
 10
55941.36
 20
3761.84
 11
55971.59
 21
3761.84
  0
LINE
  8
L-1-1
 10
55941.36
 20
3686.79
 11
55971.59
 21
3686.79
  0
LINE
  8
L-1-1
 10
55937.59
 20
3755.32
 11
55941.36
 21
3761.84
  0
LINE
  8
L-1-1
 10
55941.36
 20
3686.79
 11
55937.59
 21
3693.32
  0
ARC
  8
L-1-1
 10
55946.97
 20
3752.46
 40
9.38
 50
89.76
 51
270.24
  0
ARC
  8
L-1-1
 10
55960.98
 20
3724.32
 40
23.40
 50
126.67
 51
233.33
  0
ARC
  8
L-1-1
 10
55946.97
 20
3696.17
 40
9.38
 50
89.76
 51
270.24
  0
LINE
  8
L-1-1
 10
55971.59
 20
3669.32
 11
55971.59
 21
3779.32
  0
LINE
  8
L-1-1
 10
55913.01
 20
3743.08
 11
55937.59
 21
3743.08
  0
LINE
  8
L-1-1
 10
55913.01
 20
3705.55
 11
55937.59
 21
3705.55
  0
LINE
  8
L-1-1
 10
55903.59
 20
3693.32
 11
55903.59
 21
3755.32
  0
LINE
  8
L-1-1
 10
55907.36
 20
3761.84
 11
55937.59
 21
3761.84
  0
LINE
  8
L-1-1
 10
55907.36
 20
3686.79
 11
55937.59
 21
3686.79
  0
LINE
  8
L-1-1
 10
55903.59
 20
3755.32
 11
55907.36
 21
3761.84
  0
LINE
  8
L-1-1
 10
55907.36
 20
3686.79
 11
55903.59
 21
3693.32
  0
ARC
  8
L-1-1
 10
55912.97
 20
3752.46
 40
9.38
 50
89.76
 51
270.24
  0
ARC
  8
L-1-1
 10
55926.98
 20
3724.32
 40
23.40
 50
126.67
 51
233.33
  0
ARC
  8
L-1-1
 10
55912.97
 20
3696.17
 40
9.38
 50
89.76
 51
270.24
  0
LINE
  8
L-1-1
 10
55937.59
 20
3686.79
 11
55937.59
 21
3761.84
  0
LINE
  8
L-1-1
 10
55971.59
 20
3779.32
 11
55993.59
 21
3779.32
  0
LINE
  8
L-1-1
 10
55971.59
 20
3669.32
 11
55993.59
 21
3669.32
  0
LINE
  8
L-1-1
 10
55877.59
 20
3745.32
 11
55903.59
 21
3745.32
  0
LINE
  8
L-1-1
 10
55877.59
 20
3703.32
 11
55903.59
 21
3703.32
  0
LINE
  8
L-1-1
 10
55877.59
 20
3903.32
 11
55877.59
 21
3945.32
  0
LINE
  8
L-1-1
 10
55903.59
 20
3903.32
 11
55903.59
 21
3945.32
  0
LINE
  8
L-1-1
 10
55993.59
 20
3866.82
 11
56043.59
 21
3866.82
  0
LINE
  8
L-1-1
 10
55993.59
 20
3981.82
 11
56043.59
 21
3981.82
  0
LINE
  8
L-1-1
 10
55993.59
 20
3866.82
 11
55993.59
 21
3981.82
  0
LINE
  8
L-1-1
 10
55947.01
 20
3905.55
 11
55971.59
 21
3905.55
  0
LINE
  8
L-1-1
 10
55947.01
 20
3943.08
 11
55971.59
 21
3943.08
  0
LINE
  8
L-1-1
 10
55937.59
 20
3893.32
 11
55937.59
 21
3955.32
  0
LINE
  8
L-1-1
 10
55941.36
 20
3886.79
 11
55971.59
 21
3886.79
  0
LINE
  8
L-1-1
 10
55941.36
 20
3961.84
 11
55971.59
 21
3961.84
  0
LINE
  8
L-1-1
 10
55941.36
 20
3886.79
 11
55937.59
 21
3893.32
  0
LINE
  8
L-1-1
 10
55937.59
 20
3955.32
 11
55941.36
 21
3961.84
  0
ARC
  8
L-1-1
 10
55946.97
 20
3896.17
 40
9.38
 50
89.76
 51
270.24
  0
ARC
  8
L-1-1
 10
55960.98
 20
3924.32
 40
23.40
 50
126.67
 51
233.33
  0
ARC
  8
L-1-1
 10
55946.97
 20
3952.46
 40
9.38
 50
89.76
 51
270.24
  0
LINE
  8
L-1-1
 10
55971.59
 20
3869.32
 11
55971.59
 21
3979.32
  0
LINE
  8
L-1-1
 10
55913.01
 20
3905.55
 11
55937.59
 21
3905.55
  0
LINE
  8
L-1-1
 10
55913.01
 20
3943.08
 11
55937.59
 21
3943.08
  0
LINE
  8
L-1-1
 10
55903.59
 20
3893.32
 11
55903.59
 21
3955.32
  0
LINE
  8
L-1-1
 10
55907.36
 20
3886.79
 11
55937.59
 21
3886.79
  0
LINE
  8
L-1-1
 10
55907.36
 20
3961.84
 11
55937.59
 21
3961.84
  0
LINE
  8
L-1-1
 10
55907.36
 20
3886.79
 11
55903.59
 21
3893.32
  0
LINE
  8
L-1-1
 10
55903.59
 20
3955.32
 11
55907.36
 21
3961.84
  0
ARC
  8
L-1-1
 10
55912.97
 20
3896.17
 40
9.38
 50
89.76
 51
270.24
  0
ARC
  8
L-1-1
 10
55926.98
 20
3924.32
 40
23.40
 50
126.67
 51
233.33
  0
ARC
  8
L-1-1
 10
55912.97
 20
3952.46
 40
9.38
 50
89.76
 51
270.24
  0
LINE
  8
L-1-1
 10
55937.59
 20
3886.79
 11
55937.59
 21
3961.84
  0
LINE
  8
L-1-1
 10
55971.59
 20
3869.32
 11
55993.59
 21
3869.32
  0
LINE
  8
L-1-1
 10
55971.59
 20
3979.32
 11
55993.59
 21
3979.32
  0
LINE
  8
L-1-1
 10
55877.59
 20
3903.32
 11
55903.59
 21
3903.32
  0
LINE
  8
L-1-1
 10
55877.59
 20
3945.32
 11
55903.59
 21
3945.32
  0
LINE
  8
L-1-1
 10
56059.59
 20
3979.32
 11
56527.59
 21
3979.32
  0
LINE
  8
L-1-1
 10
56059.59
 20
3889.32
 11
56527.59
 21
3889.32
  0
LINE
  8
L-1-1
 10
56059.59
 20
3759.32
 11
56527.59
 21
3759.32
  0
LINE
  8
L-1-1
 10
56059.59
 20
3330.81
 11
56059.59
 21
4004.32
  0
LINE
  8
L-1-1
 10
56527.59
 20
3330.81
 11
56527.59
 21
4004.32
  0
LINE
  8
L-1-1
 10
17958.53
 20
15390.00
 11
18580.43
 21
15556.63
  0
ARC
  8
L-1-1
 10
18029.85
 20
15326.28
 40
610.00
 50
285.21
 51
21.27
  0
ARC
  8
L-1-1
 10
18584.31
 20
15542.14
 40
15.00
 50
21.27
 51
105.00
  0
ARC
  8
L-1-1
 10
18185.91
 20
14752.12
 40
15.00
 50
197.92
 51
285.21
  0
LINE
  8
L-1-1
 10
16151.65
 20
33858.35
 11
16232.65
 21
33858.35
  0
LINE
  8
L-1-1
 10
16151.65
 20
33903.46
 11
16232.65
 21
33903.46
  0
LINE
  8
L-1-1
 10
16151.65
 20
33858.35
 11
16151.65
 21
33903.46
  0
LINE
  8
L-1-1
 10
15647.65
 20
33950.35
 11
16217.65
 21
33950.35
  0
LINE
  8
L-1-1
 10
15647.65
 20
33810.35
 11
16217.65
 21
33810.35
  0
LINE
  8
L-1-1
 10
15597.65
 20
33830.35
 11
16217.65
 21
33830.35
  0
LINE
  8
L-1-1
 10
15597.65
 20
33930.35
 11
16217.65
 21
33930.35
  0
LINE
  8
L-1-1
 10
16217.65
 20
33810.35
 11
16217.65
 21
33830.35
  0
LINE
  8
L-1-1
 10
16217.65
 20
33930.35
 11
16217.65
 21
33950.35
  0
LINE
  8
L-1-1
 10
15597.65
 20
33830.35
 11
15597.65
 21
33930.35
  0
LINE
  8
L-1-1
 10
15647.65
 20
33810.35
 11
15647.65
 21
33830.35
  0
LINE
  8
L-1-1
 10
15647.65
 20
33930.35
 11
15647.65
 21
33950.35
  0
LINE
  8
L-1-1
 10
16071.65
 20
33830.35
 11
16071.65
 21
33930.35
  0
LINE
  8
L-1-1
 10
15817.65
 20
33730.35
 11
15817.65
 21
34030.35
  0
LINE
  8
L-1-1
 10
15056.77
 20
9334.65
 11
15056.77
 21
27867.71
  0
LINE
  8
L-1-1
 10
14940.16
 20
27935.85
 11
15123.68
 21
27985.02
  0
LINE
  8
L-1-1
 10
14946.54
 20
27931.35
 11
15120.40
 21
27977.93
  0
LINE
  8
L-1-1
 10
14993.13
 20
27757.48
 11
15166.99
 21
27804.07
  0
LINE
  8
L-1-1
 10
14993.13
 20
27757.48
 11
14944.99
 21
27937.14
  0
LINE
  8
L-1-1
 10
15166.99
 20
27804.07
 11
15118.85
 21
27983.73
  0
LINE
  8
L-1-1
 10
15011.13
 20
27746.78
 11
15156.75
 21
27785.79
  0
LINE
  8
L-1-1
 10
15030.48
 20
27751.96
 11
15027.34
 21
27766.65
  0
LINE
  8
L-1-1
 10
15137.41
 20
27780.61
 11
15132.77
 21
27794.90
  0
CIRCLE
  8
L-1-1
 10
15056.77
 20
27867.71
 40
170.25
  0
LINE
  8
L-1-1
 10
17788.77
 20
28015.96
 11
17788.77
 21
28061.07
  0
LINE
  8
L-1-1
 10
17284.77
 20
28107.96
 11
17854.77
 21
28107.96
  0
LINE
  8
L-1-1
 10
17284.77
 20
27967.96
 11
17854.77
 21
27967.96
  0
LINE
  8
L-1-1
 10
17234.77
 20
27987.96
 11
17854.77
 21
27987.96
  0
LINE
  8
L-1-1
 10
17234.77
 20
28087.96
 11
17854.77
 21
28087.96
  0
LINE
  8
L-1-1
 10
17854.77
 20
27967.96
 11
17854.77
 21
27987.96
  0
LINE
  8
L-1-1
 10
17854.77
 20
28087.96
 11
17854.77
 21
28107.96
  0
LINE
  8
L-1-1
 10
17234.77
 20
27987.96
 11
17234.77
 21
28087.96
  0
LINE
  8
L-1-1
 10
17284.77
 20
27967.96
 11
17284.77
 21
27987.96
  0
LINE
  8
L-1-1
 10
17284.77
 20
28087.96
 11
17284.77
 21
28107.96
  0
LINE
  8
L-1-1
 10
17708.77
 20
27987.96
 11
17708.77
 21
28087.96
  0
LINE
  8
L-1-1
 10
17454.77
 20
27887.96
 11
17454.77
 21
28187.96
  0
ARC
  8
L-1-1
 10
16395.65
 20
33872.35
 40
74.00
 50
0.00
 51
96.51
  0
ARC
  8
L-1-1
 10
16382.65
 20
33880.35
 40
35.00
 50
240.73
 51
90.00
  0
ARC
  8
L-1-1
 10
16382.65
 20
33872.35
 40
87.00
 50
220.53
 51
5.28
  0
ARC
  8
L-1-1
 10
16227.65
 20
33747.35
 40
110.00
 50
58.62
 51
87.40
  0
LINE
  8
L-1-1
 10
16282.31
 20
33842.80
 11
16287.57
 21
33839.79
  0
LINE
  8
L-1-1
 10
16306.00
 20
33883.19
 11
16365.54
 21
33849.82
  0
ARC
  8
L-1-1
 10
16232.65
 20
33752.35
 40
150.00
 50
60.73
 51
90.00
  0
ARC
  8
L-1-1
 10
16232.91
 20
33744.33
 40
110.00
 50
40.53
 51
60.20
  0
ARC
  8
L-1-1
 10
16382.65
 20
33989.98
 40
74.63
 50
226.33
 51
270.00
  0
ARC
  8
L-1-1
 10
16336.73
 20
33941.73
 40
8.00
 50
84.32
 51
225.84
  0
LINE
  8
L-1-1
 10
16337.52
 20
33949.69
 11
16376.64
 21
33945.79
  0
ARC
  8
L-1-1
 10
16381.60
 20
33995.55
 40
50.00
 50
264.32
 51
276.51
  0
LINE
  8
L-1-1
 10
16151.65
 20
33857.23
 11
16151.65
 21
33902.35
  0
LINE
  8
L-1-1
 10
16217.65
 20
33930.35
 11
16217.65
 21
33950.35
  0
LINE
  8
L-1-1
 10
16217.65
 20
33810.35
 11
16217.65
 21
33830.35
  0
ARC
  8
L-1-1
 10
18032.77
 20
28029.96
 40
74.00
 50
0.00
 51
96.51
  0
ARC
  8
L-1-1
 10
18019.77
 20
28037.96
 40
35.00
 50
240.73
 51
90.00
  0
ARC
  8
L-1-1
 10
18019.77
 20
28029.96
 40
87.00
 50
220.53
 51
5.28
  0
ARC
  8
L-1-1
 10
17864.77
 20
27904.96
 40
110.00
 50
58.62
 51
87.40
  0
LINE
  8
L-1-1
 10
17919.43
 20
28000.41
 11
17924.69
 21
27997.40
  0
LINE
  8
L-1-1
 10
17943.11
 20
28040.80
 11
18002.65
 21
28007.43
  0
ARC
  8
L-1-1
 10
17869.77
 20
27909.96
 40
150.00
 50
60.73
 51
90.00
  0
ARC
  8
L-1-1
 10
17870.03
 20
27901.95
 40
110.00
 50
40.53
 51
60.20
  0
ARC
  8
L-1-1
 10
18019.77
 20
28147.59
 40
74.63
 50
226.33
 51
270.00
  0
ARC
  8
L-1-1
 10
17973.84
 20
28099.34
 40
8.00
 50
84.32
 51
225.84
  0
LINE
  8
L-1-1
 10
17974.64
 20
28107.30
 11
18013.76
 21
28103.40
  0
ARC
  8
L-1-1
 10
18018.71
 20
28153.16
 40
50.00
 50
264.32
 51
276.51
  0
LINE
  8
L-1-1
 10
17788.77
 20
28059.96
 11
17869.77
 21
28059.96
  0
LINE
  8
L-1-1
 10
17788.77
 20
28014.84
 11
17869.77
 21
28014.84
  0
LINE
  8
L-1-1
 10
17788.77
 20
28014.84
 11
17788.77
 21
28059.96
  0
LINE
  8
L-1-1
 10
17854.77
 20
28087.96
 11
17854.77
 21
28107.96
  0
LINE
  8
L-1-1
 10
17854.77
 20
27967.96
 11
17854.77
 21
27987.96
  0
LINE
  8
L-1-1
 10
15056.77
 20
28037.96
 11
17766.62
 21
28037.96
  0
LINE
  8
L-1-1
 10
19783.26
 20
9636.22
 11
19013.20
 21
11949.35
  0
LINE
  8
L-1-1
 10
18958.46
 20
12113.78
 11
18838.73
 21
12473.43
  0
LINE
  8
L-1-1
 10
19869.89
 20
10073.54
 11
19424.09
 21
12247.81
  0
LINE
  8
L-1-1
 10
19387.66
 20
12425.52
 11
19349.78
 21
12610.28
  0
LINE
  8
L-1-1
 10
30501.93
 20
22780.08
 11
30501.93
 21
39079.34
  0
LINE
  8
L-1-1
 10
31094.52
 20
30190.45
 11
31687.11
 21
30190.45
  0
LINE
  8
L-1-1
 10
31094.52
 20
34634.90
 11
31687.11
 21
34634.90
  0
LINE
  8
L-1-1
 10
56543.59
 20
7314.32
 11
56562.59
 21
7314.32
  0
LINE
  8
L-1-1
 10
56543.59
 20
7134.32
 11
56562.59
 21
7134.32
  0
LINE
  8
L-3-1
 10
55833.11
 20
7374.32
 11
56738.20
 21
7374.32
  0
LINE
  8
L-1-1
 10
55993.59
 20
7014.32
 11
56043.59
 21
7014.32
  0
LINE
  8
L-1-1
 10
55993.59
 20
7434.32
 11
56043.59
 21
7434.32
  0
LINE
  8
L-1-1
 10
55993.59
 20
7014.32
 11
55993.59
 21
7434.32
  0
LINE
  8
L-1-1
 10
43538.97
 20
21301.56
 11
43538.97
 21
39079.34
  0
LINE
  8
L-1-1
 10
26946.37
 20
32412.67
 11
27538.96
 21
32412.67
  0
LINE
  8
L-1-1
 10
29909.33
 20
30190.45
 11
30501.93
 21
30190.45
  0
LINE
  8
L-1-1
 10
28131.56
 20
30190.45
 11
29316.74
 21
30190.45
  0
LINE
  8
L-1-1
 10
29909.33
 20
34634.90
 11
30501.93
 21
34634.90
  0
LINE
  8
L-1-1
 10
28131.56
 20
34634.90
 11
29316.74
 21
34634.90
  0
LINE
  8
L-1-1
 10
17834.27
 20
15554.44
 11
18676.96
 21
15770.92
  0
LINE
  8
L-1-1
 10
17889.93
 20
15635.85
 11
18587.33
 21
15815.00
  0
LINE
  8
L-1-1
 10
9257.31
 20
15517.38
 11
10107.31
 21
15517.38
  0
LINE
  8
L-1-1
 10
9257.31
 20
15556.89
 11
10107.31
 21
15556.89
  0
LINE
  8
L-1-1
 10
14118.73
 20
30191.36
 11
14670.75
 21
30013.65
  0
LINE
  8
L-1-1
 10
14104.70
 20
30257.17
 11
14457.13
 21
30672.40
  0
LINE
  8
L-1-1
 10
13961.37
 20
30929.60
 11
14434.81
 21
30741.22
  0
LINE
  8
L-1-1
 10
13945.06
 20
31006.12
 11
14224.51
 21
31389.73
  0
LINE
  8
L-1-1
 10
13804.35
 20
31666.25
 11
14198.23
 21
31470.76
  0
LINE
  8
L-1-1
 10
13784.86
 20
31757.68
 11
13992.52
 21
32105.11
  0
LINE
  8
L-1-1
 10
13647.88
 20
32400.30
 11
13960.57
 21
32203.64
  0
LINE
  8
L-1-1
 10
13623.66
 20
32513.94
 11
13761.63
 21
32817.12
  0
LINE
  8
L-1-1
 10
14264.00
 20
29509.81
 11
14281.43
 21
29527.97
  0
LINE
  8
L-1-1
 10
14507.71
 20
29763.73
 11
14690.15
 21
29953.82
  0
LINE
  8
L-1-1
 10
14860.33
 20
29299.35
 11
14906.29
 21
29287.33
  0
LINE
  8
L-1-1
 10
14276.31
 20
29452.07
 11
14303.68
 21
29444.91
  0
LINE
  8
L-1-1
 10
14423.09
 20
28763.50
 11
14473.54
 21
28810.98
  0
LINE
  8
L-1-1
 10
14886.93
 20
29200.04
 11
14923.45
 21
29234.41
  0
LINE
  8
L-1-1
 10
15052.90
 20
28580.66
 11
15141.55
 21
28561.84
  0
LINE
  8
L-1-1
 10
14434.05
 20
28712.05
 11
14504.03
 21
28697.19
  0
LINE
  8
L-1-1
 10
14582.01
 20
28017.90
 11
14666.50
 21
28090.86
  0
LINE
  8
L-1-1
 10
15086.87
 20
28453.88
 11
15156.94
 21
28514.39
  0
LINE
  8
L-1-1
 10
15250.82
 20
27842.01
 11
15383.35
 21
27816.21
  0
LINE
  8
L-1-1
 10
14592.17
 20
27970.24
 11
14704.69
 21
27948.33
  0
LINE
  8
L-1-1
 10
9257.31
 20
21514.92
 11
10107.31
 21
21514.92
  0
LINE
  8
L-1-1
 10
9257.31
 20
21545.83
 11
10107.31
 21
21545.83
  0
LINE
  8
L-1-1
 10
9322.31
 20
15467.38
 11
10042.31
 21
15467.38
  0
LINE
  8
L-1-1
 10
9322.31
 20
13991.97
 11
10042.31
 21
13685.34
  0
LINE
  8
L-1-1
 10
9322.31
 20
14047.34
 11
10042.31
 21
14354.04
  0
LINE
  8
L-1-1
 10
9322.31
 20
14709.58
 11
10042.31
 21
14408.88
  0
LINE
  8
L-1-1
 10
9322.31
 20
14764.95
 11
10042.31
 21
15077.58
  0
LINE
  8
L-1-1
 10
9322.31
 20
15446.58
 11
10042.31
 21
15134.02
  0
LINE
  8
L-1-1
 10
9322.31
 20
16296.88
 11
10042.31
 21
15986.01
  0
LINE
  8
L-1-1
 10
9322.31
 20
16353.02
 11
10042.31
 21
16663.98
  0
LINE
  8
L-1-1
 10
9322.31
 20
17030.99
 11
10042.31
 21
16720.11
  0
LINE
  8
L-1-1
 10
9322.31
 20
17087.12
 11
10042.31
 21
17398.08
  0
LINE
  8
L-1-1
 10
9322.31
 20
17765.09
 11
10042.31
 21
17454.22
  0
LINE
  8
L-1-1
 10
9322.31
 20
17821.23
 11
10042.31
 21
18132.18
  0
LINE
  8
L-1-1
 10
9322.31
 20
18499.19
 11
10042.31
 21
18188.32
  0
LINE
  8
L-1-1
 10
9322.31
 20
18555.33
 11
10042.31
 21
18866.29
  0
LINE
  8
L-1-1
 10
9322.31
 20
19233.30
 11
10042.31
 21
18922.43
  0
LINE
  8
L-1-1
 10
9322.31
 20
19289.43
 11
10042.31
 21
19600.39
  0
LINE
  8
L-1-1
 10
9322.31
 20
19967.40
 11
10042.31
 21
19656.53
  0
LINE
  8
L-1-1
 10
9322.31
 20
15587.55
 11
10042.31
 21
15927.28
  0
LINE
  8
L-1-1
 10
9322.31
 20
21449.92
 11
10042.31
 21
21449.92
  0
LINE
  8
L-1-1
 10
9322.31
 20
21610.83
 11
10042.31
 21
21610.83
  0
LINE
  8
L-1-1
 10
9322.31
 20
20023.54
 11
10042.31
 21
20334.50
  0
LINE
  8
L-1-1
 10
9322.31
 20
20701.50
 11
10042.31
 21
20390.63
  0
LINE
  8
L-1-1
 10
9322.31
 20
20757.64
 11
10042.31
 21
21068.60
  0
LINE
  8
L-1-1
 10
9322.31
 20
21463.67
 11
10042.31
 21
21127.06
  0
LINE
  8
L-1-1
 10
9322.31
 20
21616.44
 11
10042.31
 21
21927.31
  0
LINE
  8
L-1-1
 10
9322.31
 20
22294.31
 11
10042.31
 21
21983.44
  0
LINE
  8
L-1-1
 10
9322.31
 20
22350.45
 11
10042.31
 21
22661.41
  0
LINE
  8
L-1-1
 10
9322.31
 20
23028.42
 11
10042.31
 21
22717.55
  0
LINE
  8
L-1-1
 10
9322.31
 20
23084.56
 11
10042.31
 21
23395.51
  0
LINE
  8
L-1-1
 10
9322.31
 20
23762.52
 11
10042.31
 21
23451.65
  0
LINE
  8
L-1-1
 10
9322.31
 20
23818.66
 11
10042.31
 21
24129.62
  0
LINE
  8
L-1-1
 10
9322.31
 20
24496.63
 11
10042.31
 21
24185.75
  0
LINE
  8
L-1-1
 10
9322.31
 20
24552.76
 11
10042.31
 21
24863.72
  0
LINE
  8
L-1-1
 10
9322.31
 20
25230.73
 11
10042.31
 21
24919.86
  0
LINE
  8
L-1-1
 10
9322.31
 20
25286.87
 11
10042.31
 21
25597.82
  0
LINE
  8
L-1-1
 10
9322.31
 20
25964.83
 11
10042.31
 21
25653.96
  0
LINE
  8
L-1-1
 10
9322.31
 20
26020.97
 11
10042.31
 21
26331.93
  0
LINE
  8
L-1-1
 10
9322.31
 20
26698.94
 11
10042.31
 21
26388.07
  0
LINE
  8
L-1-1
 10
9322.31
 20
26755.07
 11
10042.31
 21
27066.03
  0
LINE
  8
L-1-1
 10
9322.31
 20
27433.04
 11
10042.31
 21
27122.17
  0
LINE
  8
L-1-1
 10
9257.31
 20
27503.66
 11
10107.31
 21
27503.66
  0
LINE
  8
L-1-1
 10
9257.31
 20
27543.15
 11
10107.31
 21
27543.15
  0
LINE
  8
L-1-1
 10
9322.31
 20
27438.66
 11
10042.31
 21
27438.66
  0
LINE
  8
L-1-1
 10
9322.31
 20
27593.15
 11
10042.31
 21
27593.15
  0
LINE
  8
L-1-1
 10
10042.31
 20
33966.15
 11
10107.31
 21
33966.15
  0
LINE
  8
L-1-1
 10
9257.31
 20
33966.15
 11
9322.31
 21
33966.15
  0
LINE
  8
L-1-1
 10
9322.31
 20
27637.53
 11
10042.31
 21
27952.21
  0
LINE
  8
L-1-1
 10
9322.31
 20
28319.55
 11
10042.31
 21
28008.68
  0
LINE
  8
L-1-1
 10
9322.31
 20
28376.36
 11
10042.31
 21
28694.68
  0
LINE
  8
L-1-1
 10
9322.31
 20
29062.36
 11
10042.31
 21
28751.49
  0
LINE
  8
L-1-1
 10
9322.31
 20
29119.16
 11
10042.31
 21
29437.49
  0
LINE
  8
L-1-1
 10
9322.31
 20
29809.31
 11
10042.31
 21
29494.63
  0
LINE
  8
L-1-1
 10
9322.31
 20
29866.12
 11
10042.31
 21
30180.63
  0
LINE
  8
L-1-1
 10
9322.31
 20
30552.12
 11
10042.31
 21
30237.43
  0
LINE
  8
L-1-1
 10
9322.31
 20
30608.92
 11
10042.31
 21
30923.43
  0
LINE
  8
L-1-1
 10
9322.31
 20
31294.92
 11
10042.31
 21
30980.24
  0
LINE
  8
L-1-1
 10
9322.31
 20
31351.72
 11
10042.31
 21
31666.24
  0
LINE
  8
L-1-1
 10
9322.31
 20
32037.72
 11
10042.31
 21
31723.04
  0
LINE
  8
L-1-1
 10
9322.31
 20
32094.52
 11
10042.31
 21
32409.04
  0
LINE
  8
L-1-1
 10
9322.31
 20
32780.52
 11
10042.31
 21
32465.84
  0
LINE
  8
L-1-1
 10
9322.31
 20
32837.34
 11
10042.31
 21
33152.02
  0
LINE
  8
L-1-1
 10
9357.31
 20
33555.10
 11
9357.31
 21
33865.10
  0
LINE
  8
L-1-1
 10
10007.31
 20
33555.10
 11
10007.31
 21
33865.10
  0
LINE
  8
L-1-1
 10
9322.31
 20
33545.10
 11
10042.31
 21
33545.10
  0
LINE
  8
L-1-1
 10
9322.31
 20
33495.10
 11
10042.31
 21
33495.10
  0
LINE
  8
L-1-1
 10
9322.31
 20
33235.10
 11
10042.31
 21
33235.10
  0
LINE
  8
L-1-1
 10
9322.31
 20
33185.10
 11
10042.31
 21
33185.10
  0
LINE
  8
L-1-1
 10
9322.31
 20
33462.15
 11
9965.64
 21
33235.10
  0
LINE
  8
L-1-1
 10
9322.31
 20
33185.10
 11
10042.31
 21
33185.10
  0
LINE
  8
L-1-1
 10
9322.31
 20
33264.21
 11
10042.31
 21
33475.98
  0
LINE
  8
L-1-1
 10
16301.85
 20
21562.65
 11
14705.45
 21
27520.48
  0
LINE
  8
L-1-1
 10
3404.00
 20
36961.18
 11
6658.51
 21
36961.18
  0
LINE
  8
L-1-1
 10
3991.84
 20
26294.51
 11
3991.84
 21
37761.18
  0
LINE
  8
L-1-1
 10
3404.00
 20
31627.84
 11
6658.51
 21
31627.84
  0
LINE
  8
L-1-1
 10
3404.00
 20
28961.18
 11
6658.51
 21
28961.18
  0
LINE
  8
L-1-1
 10
8791.84
 20
30153.33
 11
8791.84
 21
32694.51
  0
LINE
  8
L-1-1
 10
8656.84
 20
32244.51
 11
8791.84
 21
32694.51
  0
LINE
  8
L-1-1
 10
8926.84
 20
32244.51
 11
8791.84
 21
32694.51
  0
LINE
  8
L-1-1
 10
3940.98
 20
23040.61
 11
6153.07
 21
23040.61
  0
LINE
  8
L-1-1
 10
3940.98
 20
23040.61
 11
4390.98
 21
22905.61
  0
LINE
  8
L-1-1
 10
3940.98
 20
23040.61
 11
4390.98
 21
23175.61
  0
LINE
  8
L-1-1
 10
6658.51
 20
26294.51
 11
6658.51
 21
37761.18
  0
LINE
  8
L-1-1
 10
3404.00
 20
34294.51
 11
6658.51
 21
34294.51
  0
LINE
  8
L-1-1
 10
3830.35
 20
37761.18
 11
5325.17
 21
37761.18
  0
LINE
  8
L-1-1
 10
4347.39
 20
26294.51
 11
6658.51
 21
26294.51
  0
LINE
  8
L-1-1
 10
3404.00
 20
26294.51
 11
4347.39
 21
26294.51
  0
LINE
  8
L-1-1
 10
3830.35
 20
34827.84
 11
4347.39
 21
34827.84
  0
LINE
  8
L-1-1
 10
5325.17
 20
26294.51
 11
5325.17
 21
32161.18
  0
LINE
  8
L-1-1
 10
3830.35
 20
32161.18
 11
4347.39
 21
32161.18
  0
LINE
  8
L-1-1
 10
2493.35
 20
32048.06
 11
4347.39
 21
33239.04
  0
LINE
  8
L-1-1
 10
4041.74
 20
32882.25
 11
4347.39
 21
33239.04
  0
LINE
  8
L-1-1
 10
3895.82
 20
33109.42
 11
4347.39
 21
33239.04
  0
LINE
  8
L-1-1
 10
2493.35
 20
35552.19
 11
5325.17
 21
35780.01
  0
LINE
  8
L-1-1
 10
4887.45
 20
35609.36
 11
5325.17
 21
35780.01
  0
LINE
  8
L-1-1
 10
4865.80
 20
35878.49
 11
5325.17
 21
35780.01
  0
CIRCLE
  8
L-1-1
 10
26233.01
 20
14998.24
 40
1.20
  0
CIRCLE
  8
L-1-1
 10
26233.01
 20
14998.24
 40
0.60
  0
LINE
  8
L-1-1
 10
9682.31
 20
11912.96
 11
9682.31
 21
12162.96
  0
LINE
  8
L-1-1
 10
9557.31
 20
12037.96
 11
9807.31
 21
12037.96
  0
LINE
  8
L-1-1
 10
56543.59
 20
7124.32
 11
56543.59
 21
7324.32
  0
LINE
  8
L-1-1
 10
56527.59
 20
7324.32
 11
56543.59
 21
7324.32
  0
LINE
  8
L-1-1
 10
56527.59
 20
7124.32
 11
56543.59
 21
7124.32
  0
ARC
  8
L-1-1
 10
56507.59
 20
7249.32
 40
20.00
 50
270.00
 51
0.00
  0
ARC
  8
L-1-1
 10
56507.59
 20
7199.32
 40
20.00
 50
0.00
 51
90.00
  0
LINE
  8
L-1-1
 10
56527.59
 20
7124.32
 11
56527.59
 21
7199.32
  0
LINE
  8
L-1-1
 10
56527.59
 20
7249.32
 11
56527.59
 21
7324.32
  0
LINE
  8
L-1-1
 10
56043.59
 20
7124.32
 11
56043.59
 21
7324.32
  0
LINE
  8
L-1-1
 10
56059.59
 20
7249.32
 11
56059.59
 21
7324.32
  0
LINE
  8
L-1-1
 10
56043.59
 20
7324.32
 11
56059.59
 21
7324.32
  0
ARC
  8
L-1-1
 10
56079.59
 20
7249.32
 40
20.00
 50
180.00
 51
270.00
  0
ARC
  8
L-1-1
 10
56079.59
 20
7199.32
 40
20.00
 50
90.00
 51
180.00
  0
LINE
  8
L-1-1
 10
56043.59
 20
7124.32
 11
56059.59
 21
7124.32
  0
LINE
  8
L-1-1
 10
56059.59
 20
7124.32
 11
56059.59
 21
7199.32
  0
LINE
  8
L-1-1
 10
56079.59
 20
7229.32
 11
56507.59
 21
7229.32
  0
LINE
  8
L-1-1
 10
56079.59
 20
7219.32
 11
56507.59
 21
7219.32
  0
LINE
  8
L-1-1
 10
55947.01
 20
7093.08
 11
55971.59
 21
7093.08
  0
LINE
  8
L-1-1
 10
55947.01
 20
7055.55
 11
55971.59
 21
7055.55
  0
LINE
  8
L-1-1
 10
55937.59
 20
7043.32
 11
55937.59
 21
7105.32
  0
LINE
  8
L-1-1
 10
55941.36
 20
7111.84
 11
55971.59
 21
7111.84
  0
LINE
  8
L-1-1
 10
55941.36
 20
7036.79
 11
55971.59
 21
7036.79
  0
LINE
  8
L-1-1
 10
55937.59
 20
7105.32
 11
55941.36
 21
7111.84
  0
LINE
  8
L-1-1
 10
55941.36
 20
7036.79
 11
55937.59
 21
7043.32
  0
ARC
  8
L-1-1
 10
55946.97
 20
7102.46
 40
9.38
 50
89.76
 51
270.24
  0
ARC
  8
L-1-1
 10
55960.98
 20
7074.32
 40
23.40
 50
126.67
 51
233.33
  0
ARC
  8
L-1-1
 10
55946.97
 20
7046.17
 40
9.38
 50
89.76
 51
270.24
  0
LINE
  8
L-1-1
 10
55971.59
 20
7019.32
 11
55971.59
 21
7129.32
  0
LINE
  8
L-1-1
 10
18954.10
 20
12110.60
 11
18833.44
 21
12472.01
  0
LINE
  8
L-1-1
 10
19383.17
 20
12422.26
 11
19344.92
 21
12609.06
  0
LINE
  8
L-1-1
 10
19944.79
 20
9679.50
 11
19419.56
 21
12244.52
  0
LINE
  8
L-1-1
 10
2493.35
 20
32048.06
 11
2493.35
 21
35396.06
  0
LINE
  8
L-1-1
 10
2493.35
 20
35552.19
 11
2493.35
 21
38900.19
  0
LINE
  8
L-1-1
 10
4347.39
 20
26294.51
 11
4347.39
 21
34827.84
  0
LINE
  8
L-1-1
 10
4347.39
 20
34827.84
 11
6658.51
 21
34827.84
  0
LINE
  8
L-1-1
 10
4347.39
 20
32161.18
 11
5325.17
 21
32161.18
  0
LINE
  8
L-1-1
 10
5325.17
 20
32161.18
 11
5325.17
 21
37761.18
  0
LINE
  8
L-1-1
 10
5325.17
 20
37761.18
 11
6658.51
 21
37761.18
  0
LINE
  8
L-1-1
 10
46994.40
 20
12444.36
 11
48732.69
 21
12444.36
  0
LINE
  8
L-1-1
 10
42494.40
 20
12444.36
 11
46994.40
 21
12444.36
  0
LINE
  8
L-1-1
 10
42494.40
 20
11631.56
 11
46994.40
 21
11631.56
  0
LINE
  8
L-1-1
 10
46994.40
 20
11631.56
 11
48732.69
 21
11631.56
  0
LINE
  8
L-1-1
 10
37994.40
 20
11631.56
 11
42494.40
 21
11631.56
  0
LINE
  8
L-1-1
 10
37994.40
 20
12444.36
 11
42494.40
 21
12444.36
  0
LINE
  8
L-1-1
 10
33494.40
 20
12444.36
 11
37994.40
 21
12444.36
  0
LINE
  8
L-1-1
 10
33494.40
 20
11631.56
 11
37994.40
 21
11631.56
  0
LINE
  8
L-1-1
 10
28994.40
 20
12444.36
 11
33494.40
 21
12444.36
  0
LINE
  8
L-1-1
 10
28994.40
 20
11631.56
 11
33494.40
 21
11631.56
  0
LINE
  8
L-1-1
 10
24494.40
 20
12444.36
 11
28994.40
 21
12444.36
  0
LINE
  8
L-1-1
 10
21634.40
 20
12444.36
 11
24494.40
 21
12444.36
  0
LINE
  8
L-1-1
 10
24494.40
 20
11631.56
 11
28994.40
 21
11631.56
  0
LINE
  8
L-1-1
 10
21634.40
 20
11631.56
 11
24494.40
 21
11631.56
  0
LINE
  8
L-1-1
 10
9257.31
 20
27523.41
 11
9257.31
 21
33966.15
  0
LINE
  8
L-1-1
 10
9322.31
 20
27523.41
 11
9322.31
 21
33966.15
  0
LINE
  8
L-1-1
 10
10042.31
 20
27523.41
 11
10042.31
 21
33966.15
  0
LINE
  8
L-1-1
 10
10107.31
 20
27523.41
 11
10107.31
 21
33966.15
  0
LINE
  8
L-1-1
 10
9257.31
 20
21530.37
 11
9257.31
 21
27523.41
  0
LINE
  8
L-1-1
 10
9322.31
 20
21530.37
 11
9322.31
 21
27523.41
  0
LINE
  8
L-1-1
 10
10042.31
 20
21530.37
 11
10042.31
 21
27523.41
  0
LINE
  8
L-1-1
 10
10107.31
 20
21530.37
 11
10107.31
 21
27523.41
  0
LINE
  8
L-1-1
 10
9322.31
 20
15537.13
 11
9322.31
 21
21530.37
  0
LINE
  8
L-1-1
 10
9322.31
 20
13657.65
 11
9322.31
 21
15537.13
  0
LINE
  8
L-1-1
 10
9257.31
 20
15537.13
 11
9257.31
 21
21530.37
  0
LINE
  8
L-1-1
 10
9257.31
 20
13657.65
 11
9257.31
 21
15537.13
  0
LINE
  8
L-1-1
 10
10042.31
 20
15537.13
 11
10042.31
 21
21530.37
  0
LINE
  8
L-1-1
 10
10042.31
 20
13657.65
 11
10042.31
 21
15537.13
  0
LINE
  8
L-1-1
 10
10107.31
 20
15537.13
 11
10107.31
 21
21530.37
  0
LINE
  8
L-1-1
 10
10107.31
 20
13657.65
 11
10107.31
 21
15537.13
  0
LINE
  8
L-1-1
 10
24065.14
 20
28037.96
 11
24065.14
 21
33880.35
  0
LINE
  8
L-1-1
 10
19864.40
 20
9281.72
 11
19864.40
 21
18027.45
  0
LINE
  8
L-1-1
 10
19414.40
 20
17656.46
 11
19864.40
 21
17791.46
  0
LINE
  8
L-1-1
 10
19414.40
 20
17926.46
 11
19864.40
 21
17791.46
  0
LINE
  8
L-1-1
 10
19994.40
 20
12624.36
 11
19994.40
 21
16330.65
  0
LINE
  8
L-1-1
 10
19319.40
 20
16173.15
 11
23451.46
 21
16173.15
  0
LINE
  8
L-1-1
 10
19544.40
 20
16308.15
 11
19994.40
 21
16173.15
  0
LINE
  8
L-1-1
 10
19544.40
 20
16038.15
 11
19994.40
 21
16173.15
  0
LINE
  8
L-1-1
 10
21244.40
 20
16173.15
 11
21694.40
 21
16308.15
  0
LINE
  8
L-1-1
 10
21244.40
 20
16173.15
 11
21694.40
 21
16038.15
  0
LINE
  8
L-1-1
 10
21244.40
 20
13717.96
 11
21244.40
 21
16330.65
  0
LINE
  8
L-1-1
 10
19994.40
 20
12624.36
 11
19994.40
 21
18207.80
  0
LINE
  8
L-1-1
 10
19994.40
 20
18050.30
 11
46994.40
 21
18050.30
  0
LINE
  8
L-1-1
 10
19994.40
 20
18050.30
 11
20444.40
 21
18185.30
  0
LINE
  8
L-1-1
 10
19994.40
 20
18050.30
 11
20444.40
 21
17915.30
  0
LINE
  8
L-1-1
 10
24065.14
 20
12037.96
 11
24065.14
 21
28037.96
  0
LINE
  8
L-1-1
 10
23930.14
 20
27587.96
 11
24065.14
 21
28037.96
  0
LINE
  8
L-1-1
 10
24200.14
 20
27587.96
 11
24065.14
 21
28037.96
  0
LINE
  8
L-1-1
 10
17946.62
 20
28037.96
 11
24222.64
 21
28037.96
  0
LINE
  8
L-1-1
 10
17946.62
 20
28037.96
 11
24222.64
 21
28037.96
  0
LINE
  8
L-1-1
 10
23930.14
 20
33430.35
 11
24065.14
 21
33880.35
  0
LINE
  8
L-1-1
 10
24200.14
 20
33430.35
 11
24065.14
 21
33880.35
  0
LINE
  8
L-1-1
 10
16277.69
 20
33880.35
 11
24222.64
 21
33880.35
  0
LINE
  8
L-1-1
 10
13530.14
 20
26781.88
 11
13544.02
 21
27251.49
  0
LINE
  8
L-1-1
 10
18367.70
 20
9256.75
 11
13544.02
 21
27251.49
  0
LINE
  8
L-1-1
 10
13391.89
 20
27210.71
 11
14458.22
 21
27496.55
  0
LINE
  8
L-1-1
 10
13391.89
 20
27210.71
 11
14458.22
 21
27496.55
  0
LINE
  8
L-1-1
 10
13790.93
 20
26851.79
 11
13544.02
 21
27251.49
  0
LINE
  8
L-1-1
 10
13544.02
 20
27251.49
 11
11920.45
 21
33308.22
  0
LINE
  8
L-1-1
 10
11768.32
 20
33267.44
 11
13245.79
 21
33663.49
  0
LINE
  8
L-1-1
 10
11906.57
 20
32838.61
 11
11920.45
 21
33308.22
  0
LINE
  8
L-1-1
 10
12167.36
 20
32908.52
 11
11920.45
 21
33308.22
  0
LINE
  8
L-1-1
 10
9682.31
 20
8048.82
 11
9682.31
 21
34214.59
  0
LINE
  8
L-1-1
 10
9119.81
 20
33710.10
 11
10244.81
 21
33710.10
  0
LINE
  8
L-1-1
 10
7709.90
 20
12037.96
 11
11596.95
 21
12037.96
  0
ARC
  8
L-1-1
 10
9682.31
 20
12037.96
 40
3700.00
 50
226.64
 51
267.47
  0
LINE
  8
L-1-1
 10
6638.69
 20
6644.97
 11
9682.31
 21
12037.96
  0
LINE
  8
L-1-1
 10
7863.78
 20
8815.70
 11
8202.52
 21
9141.24
  0
LINE
  8
L-1-1
 10
7863.78
 20
8815.70
 11
7967.38
 21
9273.95
  0
LINE
  8
L-1-1
 10
6683.34
 20
13537.96
 11
8882.31
 21
13537.96
  0
LINE
  8
L-1-1
 10
6840.84
 20
11362.96
 11
6840.84
 21
14212.96
  0
LINE
  8
L-1-1
 10
6840.84
 20
13537.96
 11
6975.84
 21
13987.96
  0
LINE
  8
L-1-1
 10
6840.84
 20
13537.96
 11
6705.84
 21
13987.96
  0
LINE
  8
L-1-1
 10
6975.84
 20
11587.96
 11
6840.84
 21
12037.96
  0
LINE
  8
L-1-1
 10
6705.84
 20
11587.96
 11
6840.84
 21
12037.96
  0
LINE
  8
L-1-1
 10
6683.34
 20
12037.96
 11
7529.90
 21
12037.96
  0
LINE
  8
L-1-1
 10
8402.31
 20
6434.78
 11
8402.31
 21
9557.96
  0
LINE
  8
L-1-1
 10
7645.92
 20
6592.28
 11
9682.31
 21
6592.28
  0
LINE
  8
L-1-1
 10
7952.31
 20
6727.28
 11
8402.31
 21
6592.28
  0
LINE
  8
L-1-1
 10
7952.31
 20
6457.28
 11
8402.31
 21
6592.28
  0
CIRCLE
  8
L-1-1
 10
9682.31
 20
6592.28
 40
112.50
  0
LINE
  8
L-1-1
 10
9682.31
 20
6434.78
 11
9682.31
 21
7868.82
  0
LINE
  8
L-1-1
 10
9682.31
 20
6434.78
 11
9682.31
 21
7868.82
  0
LINE
  8
L-1-1
 10
9682.31
 20
6592.28
 11
11597.31
 21
6592.28
  0
CIRCLE
  8
L-1-1
 10
9682.31
 20
6592.28
 40
112.50
  0
LINE
  8
L-1-1
 10
11222.31
 20
6592.28
 11
11672.31
 21
6727.28
  0
LINE
  8
L-1-1
 10
11222.31
 20
6592.28
 11
11672.31
 21
6457.28
  0
LINE
  8
L-1-1
 10
11222.31
 20
6434.78
 11
11222.31
 21
9607.96
  0
LINE
  8
L-1-1
 10
14702.58
 20
6434.78
 11
14702.58
 21
8740.42
  0
LINE
  8
L-1-1
 10
14702.58
 20
6592.28
 11
21254.40
 21
6592.28
  0
LINE
  8
L-1-1
 10
14702.58
 20
6592.28
 11
15152.58
 21
6727.28
  0
LINE
  8
L-1-1
 10
14702.58
 20
6592.28
 11
15152.58
 21
6457.28
  0
LINE
  8
L-1-1
 10
20804.40
 20
6727.28
 11
21254.40
 21
6592.28
  0
LINE
  8
L-1-1
 10
20804.40
 20
6457.28
 11
21254.40
 21
6592.28
  0
LINE
  8
L-1-1
 10
21254.40
 20
6434.78
 11
21254.40
 21
9277.96
  0
LINE
  8
L-1-1
 10
21254.40
 20
6434.78
 11
21254.40
 21
9277.96
  0
LINE
  8
L-1-1
 10
21254.40
 20
6592.28
 11
51705.40
 21
6592.28
  0
LINE
  8
L-1-1
 10
21254.40
 20
6592.28
 11
21704.40
 21
6727.28
  0
LINE
  8
L-1-1
 10
21254.40
 20
6592.28
 11
21704.40
 21
6457.28
  0
LINE
  8
L-1-1
 10
12739.36
 20
8432.96
 11
14820.80
 21
8432.96
  0
LINE
  8
L-1-1
 10
12896.86
 20
8432.96
 11
12896.86
 21
12037.96
  0
LINE
  8
L-1-1
 10
12896.86
 20
8432.96
 11
12761.86
 21
8882.96
  0
LINE
  8
L-1-1
 10
12896.86
 20
8432.96
 11
13031.86
 21
8882.96
  0
LINE
  8
L-1-1
 10
12761.86
 20
11587.96
 11
12896.86
 21
12037.96
  0
LINE
  8
L-1-1
 10
13031.86
 20
11587.96
 11
12896.86
 21
12037.96
  0
LINE
  8
L-1-1
 10
12739.36
 20
12037.96
 11
18153.78
 21
12037.96
  0
LINE
  8
L-1-1
 10
21434.40
 20
9457.96
 11
24222.64
 21
9457.96
  0
LINE
  8
L-1-1
 10
24065.14
 20
8782.96
 11
24065.14
 21
12712.96
  0
LINE
  8
L-1-1
 10
23930.14
 20
9007.96
 11
24065.14
 21
9457.96
  0
LINE
  8
L-1-1
 10
24200.14
 20
9007.96
 11
24065.14
 21
9457.96
  0
CIRCLE
  8
L-1-1
 10
18367.70
 20
9256.75
 40
112.50
  0
LINE
  8
L-1-1
 10
18242.77
 20
9223.26
 11
19864.40
 21
9657.96
  0
LINE
  8
L-1-1
 10
18333.78
 20
12037.96
 11
54284.47
 21
12037.96
  0
CIRCLE
  8
L-1-1
 10
24065.14
 20
12037.96
 40
112.50
  0
LINE
  8
L-1-1
 10
24065.14
 20
12037.96
 11
23930.14
 21
12487.96
  0
LINE
  8
L-1-1
 10
24065.14
 20
12037.96
 11
24200.14
 21
12487.96
  0
LINE
  8
L-1-1
 10
30627.09
 20
10956.56
 11
30627.09
 21
15283.03
  0
LINE
  8
L-1-1
 10
30627.09
 20
12444.36
 11
30762.09
 21
12894.36
  0
LINE
  8
L-1-1
 10
30627.09
 20
12444.36
 11
30492.09
 21
12894.36
  0
LINE
  8
L-1-1
 10
30492.09
 20
11181.56
 11
30627.09
 21
11631.56
  0
LINE
  8
L-1-1
 10
30762.09
 20
11181.56
 11
30627.09
 21
11631.56
  0
LINE
  8
L-1-1
 10
46544.40
 20
18185.30
 11
46994.40
 21
18050.30
  0
LINE
  8
L-1-1
 10
46544.40
 20
17915.30
 11
46994.40
 21
18050.30
  0
LINE
  8
L-1-1
 10
46994.40
 20
12624.36
 11
46994.40
 21
18207.80
  0
LINE
  8
L-1-1
 10
46994.40
 20
12624.36
 11
46994.40
 21
18207.80
  0
LINE
  8
L-1-1
 10
46994.40
 20
18050.30
 11
51150.40
 21
18050.30
  0
LINE
  8
L-1-1
 10
46994.40
 20
18050.30
 11
47444.40
 21
18185.30
  0
LINE
  8
L-1-1
 10
46994.40
 20
18050.30
 11
47444.40
 21
17915.30
  0
LINE
  8
L-1-1
 10
50700.40
 20
18185.30
 11
51150.40
 21
18050.30
  0
LINE
  8
L-1-1
 10
50700.40
 20
17915.30
 11
51150.40
 21
18050.30
  0
LINE
  8
L-1-1
 10
51150.40
 20
13022.96
 11
51150.40
 21
18207.80
  0
LINE
  8
L-1-1
 10
51150.40
 20
13022.96
 11
51150.40
 21
18207.80
  0
LINE
  8
L-1-1
 10
50475.40
 20
18050.30
 11
53324.35
 21
18050.30
  0
LINE
  8
L-1-1
 10
50700.40
 20
18185.30
 11
51150.40
 21
18050.30
  0
LINE
  8
L-1-1
 10
50700.40
 20
17915.30
 11
51150.40
 21
18050.30
  0
LINE
  8
L-1-1
 10
51705.40
 20
18050.30
 11
52155.40
 21
18185.30
  0
LINE
  8
L-1-1
 10
51705.40
 20
18050.30
 11
52155.40
 21
17915.30
  0
LINE
  8
L-1-1
 10
51705.40
 20
14467.96
 11
51705.40
 21
18207.80
  0
LINE
  8
L-1-1
 10
46994.40
 20
12624.36
 11
46994.40
 21
16134.97
  0
LINE
  8
L-1-1
 10
42494.40
 20
15977.47
 11
46994.40
 21
15977.47
  0
LINE
  8
L-1-1
 10
46544.40
 20
15842.47
 11
46994.40
 21
15977.47
  0
LINE
  8
L-1-1
 10
46544.40
 20
16112.47
 11
46994.40
 21
15977.47
  0
LINE
  8
L-1-1
 10
42494.40
 20
15977.47
 11
42944.40
 21
15842.47
  0
LINE
  8
L-1-1
 10
42494.40
 20
15977.47
 11
42944.40
 21
16112.47
  0
LINE
  8
L-1-1
 10
42494.40
 20
12624.36
 11
42494.40
 21
16134.97
  0
LINE
  8
L-1-1
 10
51755.39
 20
13428.68
 11
54490.36
 21
15339.76
  0
LINE
  8
L-1-1
 10
54490.36
 20
15339.76
 11
54490.36
 21
21250.70
  0
LINE
  8
L-1-1
 10
53205.40
 20
13140.76
 11
55691.75
 21
15306.92
  0
LINE
  8
L-1-1
 10
55691.75
 20
15306.92
 11
55691.75
 21
17164.09
  0
LINE
  8
L-1-1
 10
52963.40
 20
12112.96
 11
56946.53
 21
15290.28
  0
LINE
  8
L-1-1
 10
56946.53
 20
15290.28
 11
56946.53
 21
19455.20
  0
LINE
  8
L-1-1
 10
49583.34
 20
13900.75
 11
49583.34
 21
14310.53
  0
LINE
  8
L-1-1
 10
49583.34
 20
14310.53
 11
50334.60
 21
14310.53
  0
LINE
  8
L-1-1
 10
49811.94
 20
14500.76
 11
50334.60
 21
14310.53
  0
LINE
  8
L-1-1
 10
49692.16
 20
14171.66
 11
49811.94
 21
14500.76
  0
LINE
  8
L-1-1
 10
51255.40
 20
6727.28
 11
51705.40
 21
6592.28
  0
LINE
  8
L-1-1
 10
51255.40
 20
6457.28
 11
51705.40
 21
6592.28
  0
LINE
  8
L-1-1
 10
51705.40
 20
6434.78
 11
51705.40
 21
9607.96
  0
LINE
  8
L-1-1
 10
51705.40
 20
6434.78
 11
51705.40
 21
9607.96
  0
LINE
  8
L-1-1
 10
51030.40
 20
6592.28
 11
53380.40
 21
6592.28
  0
LINE
  8
L-1-1
 10
51255.40
 20
6727.28
 11
51705.40
 21
6592.28
  0
LINE
  8
L-1-1
 10
51255.40
 20
6457.28
 11
51705.40
 21
6592.28
  0
LINE
  8
L-1-1
 10
53205.40
 20
6592.28
 11
53655.40
 21
6727.28
  0
LINE
  8
L-1-1
 10
53205.40
 20
6592.28
 11
53655.40
 21
6457.28
  0
LINE
  8
L-1-1
 10
53205.40
 20
6434.78
 11
53205.40
 21
9607.96
  0
LINE
  8
L-1-1
 10
51020.40
 20
8367.95
 11
51020.40
 21
10407.96
  0
LINE
  8
L-1-1
 10
48245.14
 20
8525.45
 11
51705.40
 21
8525.45
  0
LINE
  8
L-1-1
 10
50570.40
 20
8660.45
 11
51020.40
 21
8525.45
  0
LINE
  8
L-1-1
 10
50570.40
 20
8390.45
 11
51020.40
 21
8525.45
  0
CIRCLE
  8
L-1-1
 10
51705.40
 20
8525.45
 40
112.50
  0
LINE
  8
L-1-1
 10
51705.40
 20
8367.95
 11
51705.40
 21
9607.96
  0
LINE
  8
L-1-1
 10
51705.40
 20
8367.95
 11
51705.40
 21
9607.96
  0
LINE
  8
L-1-1
 10
51705.40
 20
8525.45
 11
53295.40
 21
8525.45
  0
CIRCLE
  8
L-1-1
 10
51705.40
 20
8525.45
 40
112.50
  0
LINE
  8
L-1-1
 10
52620.40
 20
8525.45
 11
53070.40
 21
8660.45
  0
LINE
  8
L-1-1
 10
52620.40
 20
8525.45
 11
53070.40
 21
8390.45
  0
LINE
  8
L-1-1
 10
52620.40
 20
8367.95
 11
52620.40
 21
10207.96
  0
LINE
  8
L-1-1
 10
55046.83
 20
7074.32
 11
55653.11
 21
7074.32
  0
LINE
  8
L-1-1
 10
55046.83
 20
7374.32
 11
55653.11
 21
7374.32
  0
LINE
  8
L-1-1
 10
54604.13
 20
9203.96
 11
51537.95
 21
12974.11
  0
LINE
  8
L-1-1
 10
54215.46
 20
9467.90
 11
54604.13
 21
9203.96
  0
LINE
  8
L-1-1
 10
54604.13
 20
9203.96
 11
54424.93
 21
9638.25
  0
LINE
  8
L-1-1
 10
56228.51
 20
7345.32
 11
55518.86
 21
8405.01
  0
LINE
  8
L-1-1
 10
55518.86
 20
8405.01
 11
55518.86
 21
11276.01
  0
LINE
  8
L-1-1
 10
54074.74
 20
4590.37
 11
56043.59
 21
4590.37
  0
LINE
  8
L-1-1
 10
55427.59
 20
4725.37
 11
55877.59
 21
4590.37
  0
LINE
  8
L-1-1
 10
55427.59
 20
4455.37
 11
55877.59
 21
4590.37
  0
LINE
  8
L-1-1
 10
55202.59
 20
6081.49
 11
59486.89
 21
6081.49
  0
LINE
  8
L-1-1
 10
55427.59
 20
6216.49
 11
55877.59
 21
6081.49
  0
LINE
  8
L-1-1
 10
55427.59
 20
5946.49
 11
55877.59
 21
6081.49
  0
LINE
  8
L-1-1
 10
55204.33
 20
6399.32
 11
55204.33
 21
8049.32
  0
LINE
  8
L-1-1
 10
55069.33
 20
6624.32
 11
55204.33
 21
7074.32
  0
LINE
  8
L-1-1
 10
55339.33
 20
6624.32
 11
55204.33
 21
7074.32
  0
LINE
  8
L-1-1
 10
55204.33
 20
7374.32
 11
55069.33
 21
7824.32
  0
LINE
  8
L-1-1
 10
55204.33
 20
7374.32
 11
55339.33
 21
7824.32
  0
LINE
  8
L-1-1
 10
55877.59
 20
4125.32
 11
55877.59
 21
4747.87
  0
CIRCLE
  8
L-1-1
 10
56043.59
 20
4590.37
 40
112.50
  0
LINE
  8
L-1-1
 10
56043.59
 20
4184.32
 11
56043.59
 21
4747.87
  0
LINE
  8
L-1-1
 10
56043.59
 20
4184.32
 11
56043.59
 21
4747.87
  0
LINE
  8
L-1-1
 10
56043.59
 20
4590.37
 11
58334.28
 21
4590.37
  0
CIRCLE
  8
L-1-1
 10
56043.59
 20
4590.37
 40
112.50
  0
LINE
  8
L-1-1
 10
56562.59
 20
4590.37
 11
57012.59
 21
4725.37
  0
LINE
  8
L-1-1
 10
56562.59
 20
4590.37
 11
57012.59
 21
4455.37
  0
LINE
  8
L-1-1
 10
56562.59
 20
4129.32
 11
56562.59
 21
4747.87
  0
LINE
  8
L-1-1
 10
55877.59
 20
3925.32
 11
55877.59
 21
6238.99
  0
LINE
  8
L-1-1
 10
56562.59
 20
6081.49
 11
57012.59
 21
6216.49
  0
LINE
  8
L-1-1
 10
56562.59
 20
6081.49
 11
57012.59
 21
5946.49
  0
LINE
  8
L-1-1
 10
56562.59
 20
4129.32
 11
56562.59
 21
6238.99
  0
LINE
  8
L-1-1
 10
56228.51
 20
7345.32
 11
56090.29
 21
7794.34
  0
LINE
  8
L-1-1
 10
55865.95
 20
7644.10
 11
56228.51
 21
7345.32
  0
LINE
  8
L-1-1
 10
53205.40
 20
13140.76
 11
53633.37
 21
13334.58
  0
LINE
  8
L-1-1
 10
53205.40
 20
13140.76
 11
53456.01
 21
13538.15
  0
LINE
  8
L-1-1
 10
52963.40
 20
12112.96
 11
53399.37
 21
12288.04
  0
LINE
  8
L-1-1
 10
52963.40
 20
12112.96
 11
53231.00
 21
12499.11
  0
LINE
  8
L-1-1
 10
51755.39
 20
13428.68
 11
52201.58
 21
13575.77
  0
LINE
  8
L-1-1
 10
51755.39
 20
13428.68
 11
52046.93
 21
13797.09
  0
CIRCLE
  8
L-1-1
 10
51366.40
 20
13335.46
 40
400.00
  0
LINE
  8
L-1-1
 10
52129.45
 20
30521.26
 11
52129.45
 21
32050.45
  0
LINE
  8
L-1-1
 10
51926.40
 20
31292.64
 11
52129.45
 21
32050.45
  0
LINE
  8
L-1-1
 10
52332.51
 20
31292.64
 11
52129.45
 21
32050.45
  0
LINE
  8
L-1-1
 10
51280.92
 20
28497.59
 11
55023.77
 21
32240.44
  0
LINE
  8
L-1-1
 10
54912.40
 20
32129.07
 11
57005.44
 21
30036.03
  0
LINE
  8
L-1-1
 10
54912.40
 20
32129.07
 11
55326.06
 21
31906.33
  0
LINE
  8
L-1-1
 10
55135.14
 20
31715.41
 11
54912.40
 21
32129.07
  0
LINE
  8
L-1-1
 10
51337.49
 20
28299.60
 11
54313.32
 21
31275.43
  0
LINE
  8
L-1-1
 10
54201.95
 20
31164.06
 11
56040.43
 21
29325.59
  0
LINE
  8
L-1-1
 10
54201.95
 20
31164.06
 11
54615.61
 21
30941.32
  0
LINE
  8
L-1-1
 10
54424.69
 20
30750.41
 11
54201.95
 21
31164.06
  0
LINE
  8
L-1-1
 10
52129.45
 20
24253.08
 11
52129.45
 21
30253.08
  0
LINE
  8
L-1-1
 10
57005.44
 20
30036.03
 11
56782.70
 21
30449.69
  0
LINE
  8
L-1-1
 10
56591.78
 20
30258.77
 11
57005.44
 21
30036.03
  0
LINE
  8
L-1-1
 10
53373.96
 20
26404.55
 11
57116.81
 21
30147.40
  0
LINE
  8
L-1-1
 10
56040.43
 20
29325.59
 11
55817.69
 21
29739.24
  0
LINE
  8
L-1-1
 10
55626.77
 20
29548.32
 11
56040.43
 21
29325.59
  0
LINE
  8
L-1-1
 10
53175.97
 20
26461.12
 11
56151.80
 21
29436.95
  0
LINE
  8
L-1-1
 10
49129.45
 20
27253.08
 11
55129.45
 21
27253.08
  0
LINE
  8
L-1-1
 10
46711.36
 20
25003.08
 11
49699.45
 21
25003.08
  0
LINE
  8
L-1-1
 10
46868.86
 20
25003.08
 11
46868.86
 21
29503.08
  0
LINE
  8
L-1-1
 10
46868.86
 20
25003.08
 11
46733.86
 21
25453.08
  0
LINE
  8
L-1-1
 10
46868.86
 20
25003.08
 11
47003.86
 21
25453.08
  0
LINE
  8
L-1-1
 10
46733.86
 20
29053.08
 11
46868.86
 21
29503.08
  0
LINE
  8
L-1-1
 10
47003.86
 20
29053.08
 11
46868.86
 21
29503.08
  0
LINE
  8
L-1-1
 10
46711.36
 20
29503.08
 11
49699.45
 21
29503.08
  0
LINE
  8
L-1-1
 10
48943.43
 20
23854.93
 11
51086.47
 21
25997.97
  0
LINE
  8
L-1-1
 10
48365.37
 20
24655.73
 11
49532.10
 21
23489.00
  0
LINE
  8
L-1-1
 10
48429.01
 20
24401.17
 11
48842.67
 21
24178.43
  0
LINE
  8
L-1-1
 10
48842.67
 20
24178.43
 11
48619.93
 21
24592.09
  0
LINE
  8
L-1-1
 10
48731.30
 20
24067.06
 11
50874.34
 21
26210.10
  0
LINE
  8
L-1-1
 10
48726.87
 20
26333.84
 11
51030.21
 21
26333.84
  0
LINE
  8
L-1-1
 10
48884.37
 20
25658.84
 11
48884.37
 21
28847.32
  0
LINE
  8
L-1-1
 10
48749.37
 20
25883.84
 11
48884.37
 21
26333.84
  0
LINE
  8
L-1-1
 10
49019.37
 20
25883.84
 11
48884.37
 21
26333.84
  0
LINE
  8
L-1-1
 10
48884.37
 20
28172.32
 11
48749.37
 21
28622.32
  0
LINE
  8
L-1-1
 10
48884.37
 20
28172.32
 11
49019.37
 21
28622.32
  0
LINE
  8
L-1-1
 10
48726.87
 20
28172.32
 11
51030.21
 21
28172.32
  0
LINE
  8
L-1-1
 10
47815.75
 20
26073.98
 11
51067.34
 21
26073.98
  0
LINE
  8
L-1-1
 10
47973.25
 20
25398.98
 11
47973.25
 21
29107.18
  0
LINE
  8
L-1-1
 10
47838.25
 20
25623.98
 11
47973.25
 21
26073.98
  0
LINE
  8
L-1-1
 10
48108.25
 20
25623.98
 11
47973.25
 21
26073.98
  0
LINE
  8
L-1-1
 10
47973.25
 20
28432.18
 11
47838.25
 21
28882.18
  0
LINE
  8
L-1-1
 10
47973.25
 20
28432.18
 11
48108.25
 21
28882.18
  0
LINE
  8
L-1-1
 10
47815.75
 20
28432.18
 11
51067.34
 21
28432.18
  0
LINE
  8
L-1-1
 10
49054.80
 20
23966.30
 11
49468.46
 21
23743.56
  0
LINE
  8
L-1-1
 10
49277.54
 20
23552.64
 11
49054.80
 21
23966.30
  0
LINE
  8
L-1-1
 10
52332.35
 20
24115.69
 11
53428.37
 21
25211.70
  0
LINE
  8
L-1-1
 10
50715.24
 20
25838.87
 11
52129.45
 21
27253.08
  0
LINE
  8
L-1-1
 10
52129.45
 20
27253.08
 11
53543.67
 21
25838.87
  0
LINE
  8
L-1-1
 10
52129.45
 20
27253.08
 11
53543.67
 21
28667.30
  0
LINE
  8
L-1-1
 10
50715.24
 20
28667.30
 11
52129.45
 21
27253.08
  0
TEXT
  8
NTEXT
 10
17983.64
 20
17136.54
 40
348.75
 41
0.32
  1

 50
-172.51
  7
KANJI
  0
TEXT
  8
NTEXT
 10
17938.10
 20
17482.31
 40
348.75
 41
0.32
  1

 50
-172.51
  7
KANJI
  0
TEXT
  8
NTEXT
 10
19597.76
 20
17700.90
 40
697.50
 41
0.71
  1
１５°
 50
-172.51
  7
KANJI
  0
TEXT
  8
NTEXT
 10
53139.63
 20
23556.73
 40
697.50
 41
0.69
  1
２００
 50
44.99
  7
KANJI
  0
TEXT
  8
NTEXT
 10
54076.73
 20
24987.04
 40
348.75
 41
0.32
  1

 50
44.99
  7
KANJI
  0
TEXT
  8
NTEXT
 10
54323.33
 20
24740.43
 40
348.75
 41
0.32
  1

 50
44.99
  7
KANJI
  0
TEXT
  8
NTEXT
 10
26875.07
 20
23046.78
 40
450.00
 41
0.96
  1
形式
 50
90.00
  7
KANJI
  0
TEXT
  8
NTEXT
 10
27467.67
 20
22542.78
 40
450.00
 41
0.96
  1
ジブ長さ
 50
90.00
  7
KANJI
  0
TEXT
  8
NTEXT
 10
27467.67
 20
27846.34
 40
450.00
 41
0.63
  1
18.7m
 50
90.00
  7
KANJI
  0
TEXT
  8
NTEXT
 10
28060.26
 20
22542.78
 40
450.00
 41
0.96
  1
吊上荷重
 50
90.00
  7
KANJI
  0
TEXT
  8
NTEXT
 10
28652.85
 20
22542.78
 40
450.00
 41
0.96
  1
作業半径
 50
90.00
  7
KANJI
  0
TEXT
  8
NTEXT
 10
28652.85
 20
26735.23
 40
450.00
 41
0.96
  1
０～１６ｍ
 50
90.00
  7
KANJI
  0
TEXT
  8
NTEXT
 10
29245.45
 20
26987.23
 40
450.00
 41
0.59
  1
1.8t
 50
90.00
  7
KANJI
  0
TEXT
  8
NTEXT
 10
29245.45
 20
22542.78
 40
450.00
 41
0.96
  1
定格荷重
 50
90.00
  7
KANJI
  0
TEXT
  8
NTEXT
 10
29838.04
 20
22038.78
 40
450.00
 41
0.96
  1
最大自立高さ
 50
90.00
  7
KANJI
  0
TEXT
  8
NTEXT
 10
29838.04
 20
31179.67
 40
450.00
 41
0.66
  1
30.5m
 50
90.00
  7
KANJI
  0
TEXT
  8
NTEXT
 10
31023.22
 20
23786.04
 40
450.00
 41
0.96
  1
荷重
 50
90.00
  7
KANJI
  0
TEXT
  8
NTEXT
 10
31615.82
 20
23786.04
 40
450.00
 41
0.96
  1
速度
 50
90.00
  7
KANJI
  0
TEXT
  8
NTEXT
 10
31023.22
 20
31431.67
 40
450.00
 41
0.59
  1
1.8t
 50
90.00
  7
KANJI
  0
TEXT
  8
NTEXT
 10
31615.82
 20
26028.73
 40
450.00
 41
0.64
  1
2.9m/min
 50
90.00
  7
KANJI
  0
TEXT
  8
NTEXT
 10
30799.70
 20
22409.62
 40
2.96
 41
0.25
  1
,
 50
90.00
  7
KANJI
  0
TEXT
  8
NTEXT
 10
30798.05
 20
22409.46
 40
2.96
 41
0.96
  1
巻
 50
90.00
  7
KANJI
  0
TEXT
  8
NTEXT
 10
30801.01
 20
22409.46
 40
2.96
 41
0.96
  1
上
 50
90.00
  7
KANJI
  0
TEXT
  8
NTEXT
 10
32208.41
 20
23416.41
 40
450.00
 41
0.96
  1
起伏
 50
90.00
  7
KANJI
  0
TEXT
  8
NTEXT
 10
32801.00
 20
23416.41
 40
450.00
 41
0.96
  1
旋回
 50
90.00
  7
KANJI
  0
TEXT
  8
NTEXT
 10
33393.59
 20
23416.41
 40
450.00
 41
0.96
  1
昇降
 50
90.00
  7
KANJI
  0
TEXT
  8
NTEXT
 10
33986.19
 20
23416.41
 40
450.00
 41
0.96
  1
巻上
 50
90.00
  7
KANJI
  0
TEXT
  8
NTEXT
 10
34578.78
 20
23416.41
 40
450.00
 41
0.96
  1
起伏
 50
90.00
  7
KANJI
  0
TEXT
  8
NTEXT
 10
35171.37
 20
23416.41
 40
450.00
 41
0.96
  1
旋回
 50
90.00
  7
KANJI
  0
TEXT
  8
NTEXT
 10
35763.96
 20
23416.41
 40
450.00
 41
0.96
  1
昇降
 50
90.00
  7
KANJI
  0
TEXT
  8
NTEXT
 10
32208.41
 20
26643.67
 40
450.00
 41
0.61
  1
6.1/18.2(7.3/21.9)m/min
 50
90.00
  7
KANJI
  0
TEXT
  8
NTEXT
 10
32801.00
 20
30468.67
 40
450.00
 41
0.60
  1
0.55r.p.m
 50
90.00
  7
KANJI
  0
TEXT
  8
NTEXT
 10
33393.59
 20
29262.67
 40
450.00
 41
0.58
  1
1.7(2.0)m/min
 50
90.00
  7
KANJI
  0
TEXT
  8
NTEXT
 10
33986.19
 20
27147.67
 40
450.00
 41
0.96
  1
１１ｋｗ×４Ｐ　４０％ＥＤ　インバー
 50
90.00
  7
KANJI
  0
TEXT
  8
NTEXT
 10
34578.78
 20
27147.67
 40
450.00
 41
0.96
  1
７．５／２．５ｋｗ×４／１２Ｐ　４０
 50
90.00
  7
KANJI
  0
TEXT
  8
NTEXT
 10
35171.37
 20
28407.67
 40
450.00
 41
0.96
  1
１．５ｋｗ×４Ｐ　インバータ制御
 50
90.00
  7
KANJI
  0
TEXT
  8
NTEXT
 10
35763.96
 20
28911.67
 40
450.00
 41
0.96
  1
３．０ｋｗ×４Ｐ　３０分定格
 50
90.00
  7
KANJI
  0
TEXT
  8
NTEXT
 10
36356.56
 20
27548.17
 40
450.00
 41
0.71
  1
200V 50Hz(220V 60Hz)
 50
90.00
  7
KANJI
  0
TEXT
  8
NTEXT
 10
36356.56
 20
23046.78
 40
450.00
 41
0.96
  1
電源
 50
90.00
  7
KANJI
  0
TEXT
  8
NTEXT
 10
36949.15
 20
23416.41
 40
450.00
 41
0.96
  1
方式
 50
90.00
  7
KANJI
  0
TEXT
  8
NTEXT
 10
37541.74
 20
22660.41
 40
450.00
 41
0.96
  1
ストローク
 50
90.00
  7
KANJI
  0
TEXT
  8
NTEXT
 10
36949.15
 20
30171.67
 40
450.00
 41
0.96
  1
電動チェンブロック
 50
90.00
  7
KANJI
  0
TEXT
  8
NTEXT
 10
37541.74
 20
31431.67
 40
450.00
 41
0.66
  1
4.5m
 50
90.00
  7
KANJI
  0
TEXT
  8
NTEXT
 10
38430.63
 20
22542.78
 40
450.00
 41
0.96
  1
安全装置
 50
90.00
  7
KANJI
  0
TEXT
  8
NTEXT
 10
38134.34
 20
26841.67
 40
450.00
 41
0.96
  1
過負荷防止装置　　起伏制限装置　　巻
 50
90.00
  7
KANJI
  0
TEXT
  8
NTEXT
 10
38726.93
 20
26886.16
 40
450.00
 41
0.96
  1
旋回制限装置　　　本体落下防止装置
 50
90.00
  7
KANJI
  0
TEXT
  8
NTEXT
 10
39319.52
 20
31683.67
 40
450.00
 41
0.75
  1
70m
 50
90.00
  7
KANJI
  0
TEXT
  8
NTEXT
 10
39912.11
 20
31431.67
 40
450.00
 41
0.66
  1
7.3t
 50
90.00
  7
KANJI
  0
TEXT
  8
NTEXT
 10
40504.71
 20
30927.67
 40
450.00
 41
0.96
  1
１．５ｔ／本
 50
90.00
  7
KANJI
  0
TEXT
  8
NTEXT
 10
41097.30
 20
31431.67
 40
450.00
 41
0.59
  1
1.4t
 50
90.00
  7
KANJI
  0
TEXT
  8
NTEXT
 10
41689.89
 20
31431.67
 40
450.00
 41
0.66
  1
2.8t
 50
90.00
  7
KANJI
  0
TEXT
  8
NTEXT
 10
42282.48
 20
31179.67
 40
450.00
 41
0.63
  1
19.2t
 50
90.00
  7
KANJI
  0
TEXT
  8
NTEXT
 10
39319.52
 20
22542.78
 40
450.00
 41
0.96
  1
最大揚程
 50
90.00
  7
KANJI
  0
TEXT
  8
NTEXT
 10
39912.11
 20
23416.41
 40
450.00
 41
0.96
  1
本体
 50
90.00
  7
KANJI
  0
TEXT
  8
NTEXT
 10
40504.71
 20
23164.41
 40
450.00
 41
0.96
  1
マスト
 50
90.00
  7
KANJI
  0
TEXT
  8
NTEXT
 10
41092.69
 20
22189.08
 40
440.78
 41
0.96
  1
ベースフレーム
 50
90.00
  7
KANJI
  0
TEXT
  8
NTEXT
 10
41659.61
 20
22169.11
 40
389.43
 41
0.96
  1
本体最大分割重量
 50
90.00
  7
KANJI
  0
TEXT
  8
NTEXT
 10
42282.48
 20
23164.41
 40
450.00
 41
0.96
  1
総重量
 50
90.00
  7
KANJI
  0
TEXT
  8
NTEXT
 10
31660.11
 20
21521.19
 40
450.00
 41
0.96
  1
速
 50
90.00
  7
KANJI
  0
TEXT
  8
NTEXT
 10
32110.11
 20
21521.19
 40
450.00
 41
0.96
  1
度
 50
90.00
  7
KANJI
  0
TEXT
  8
NTEXT
 10
34371.08
 20
21521.19
 40
450.00
 41
0.96
  1
電
 50
90.00
  7
KANJI
  0
TEXT
  8
NTEXT
 10
34821.08
 20
21521.19
 40
450.00
 41
0.96
  1
動
 50
90.00
  7
KANJI
  0
TEXT
  8
NTEXT
 10
35271.08
 20
21521.19
 40
450.00
 41
0.96
  1
機
 50
90.00
  7
KANJI
  0
TEXT
  8
NTEXT
 10
36993.45
 20
21521.19
 40
450.00
 41
0.96
  1
昇
 50
90.00
  7
KANJI
  0
TEXT
  8
NTEXT
 10
37443.45
 20
21521.19
 40
450.00
 41
0.96
  1
降
 50
90.00
  7
KANJI
  0
TEXT
  8
NTEXT
 10
40845.30
 20
21521.19
 40
450.00
 41
0.96
  1
重
 50
90.00
  7
KANJI
  0
TEXT
  8
NTEXT
 10
41295.30
 20
21521.19
 40
450.00
 41
0.96
  1
量
 50
90.00
  7
KANJI
  0
TEXT
  8
NTEXT
 10
30771.22
 20
22260.45
 40
450.00
 41
0.96
  1
巻
 50
90.00
  7
KANJI
  0
TEXT
  8
NTEXT
 10
31221.22
 20
22260.45
 40
450.00
 41
0.96
  1
上
 50
90.00
  7
KANJI
  0
TEXT
  8
NTEXT
 10
27467.67
 20
34513.01
 40
450.00
 41
0.69
  1
24.9m
 50
90.00
  7
KANJI
  0
TEXT
  8
NTEXT
 10
28652.85
 20
35372.12
 40
450.00
 41
0.96
  1
１１～２２ｍ
 50
90.00
  7
KANJI
  0
TEXT
  8
NTEXT
 10
29245.45
 20
35876.12
 40
450.00
 41
0.55
  1
1.0t
 50
90.00
  7
KANJI
  0
TEXT
  8
NTEXT
 10
30430.63
 20
27491.23
 40
450.00
 41
0.96
  1
低速
 50
90.00
  7
KANJI
  0
TEXT
  8
NTEXT
 10
30441.71
 20
31827.44
 40
450.00
 41
0.96
  1
中速
 50
90.00
  7
KANJI
  0
TEXT
  8
NTEXT
 10
30430.63
 20
36380.12
 40
450.00
 41
0.96
  1
高速
 50
90.00
  7
KANJI
  0
TEXT
  8
NTEXT
 10
4451.06
 20
2878.49
 40
1350.00
 41
0.77
  1
ＪＣＬ０２２Ⅱ
 50
90.00
  7
KANJI
  0
TEXT
  8
NTEXT
 10
-11090.49
 20
2132.85
 40
900.00
 41
0.96
  1
２２ｔ－ｍ起伏ジブ式クライミングクレーン
 50
90.00
  7
KANJI
  0
TEXT
  8
NTEXT
 10
28060.26
 20
31431.67
 40
450.00
 41
0.59
  1
1.9t
 50
90.00
  7
KANJI
  0
TEXT
  8
NTEXT
 10
43171.37
 20
23046.78
 40
450.00
 41
0.96
  1
記事
 50
90.00
  7
KANJI
  0
TEXT
  8
NTEXT
 10
42875.08
 20
28304.17
 40
450.00
 41
0.96
  1
（　）内は６０Ｈｚ時の速度を示す。
 50
90.00
  7
KANJI
  0
TEXT
  8
NTEXT
 10
43467.67
 20
29163.67
 40
450.00
 41
0.96
  1
但しインバータ制御を除く。
 50
90.00
  7
KANJI
  0
TEXT
  8
NTEXT
 10
28652.85
 20
31179.67
 40
450.00
 41
0.96
  1
０～１１ｍ
 50
90.00
  7
KANJI
  0
TEXT
  8
NTEXT
 10
29245.45
 20
31431.67
 40
450.00
 41
0.59
  1
1.8t
 50
90.00
  7
KANJI
  0
TEXT
  8
NTEXT
 10
8355.39
 20
30070.25
 40
675.00
 41
0.96
  1
作業半径（ｍ）
 50
90.00
  7
KANJI
  0
TEXT
  8
NTEXT
 10
7540.59
 20
25967.68
 40
697.50
 41
0.64
  1
０
 50
90.00
  7
KANJI
  0
TEXT
  8
NTEXT
 10
7540.59
 20
28767.68
 40
697.50
 41
0.80
  1
５
 50
90.00
  7
KANJI
  0
TEXT
  8
NTEXT
 10
7540.59
 20
31120.47
 40
697.50
 41
0.58
  1
１０
 50
90.00
  7
KANJI
  0
TEXT
  8
NTEXT
 10
7540.59
 20
36453.80
 40
697.50
 41
0.72
  1
２０
 50
90.00
  7
KANJI
  0
TEXT
  8
NTEXT
 10
4162.81
 20
24506.59
 40
697.50
 41
0.56
  1
２．０
 50
90.00
  7
KANJI
  0
TEXT
  8
NTEXT
 10
6561.53
 20
23287.83
 40
562.50
 41
0.61
  1
(t)
 50
90.00
  7
KANJI
  0
TEXT
  8
NTEXT
 10
4414.33
 20
23588.61
 40
562.50
 41
0.96
  1
定
 50
90.00
  7
KANJI
  0
TEXT
  8
NTEXT
 10
4976.83
 20
23588.61
 40
562.50
 41
0.96
  1
格
 50
90.00
  7
KANJI
  0
TEXT
  8
NTEXT
 10
5539.33
 20
23588.61
 40
562.50
 41
0.96
  1
荷
 50
90.00
  7
KANJI
  0
TEXT
  8
NTEXT
 10
6101.83
 20
23588.61
 40
562.50
 41
0.96
  1
重
 50
90.00
  7
KANJI
  0
TEXT
  8
NTEXT
 10
6664.33
 20
23588.61
 40
562.50
 41
0.32
  1
 
 50
90.00
  7
KANJI
  0
TEXT
  8
NTEXT
 10
7540.59
 20
33787.13
 40
697.50
 41
0.66
  1
１５
 50
90.00
  7
KANJI
  0
TEXT
  8
NTEXT
 10
5673.92
 20
24506.59
 40
697.50
 41
0.47
  1
１．０
 50
90.00
  7
KANJI
  0
TEXT
  8
NTEXT
 10
4785.03
 20
24506.59
 40
697.50
 41
0.52
  1
１．８
 50
90.00
  7
KANJI
  0
TEXT
  8
NTEXT
 10
3807.26
 20
31653.80
 40
697.50
 41
0.52
  1
１１
 50
90.00
  7
KANJI
  0
TEXT
  8
NTEXT
 10
3807.26
 20
34320.47
 40
697.50
 41
0.66
  1
１６
 50
90.00
  7
KANJI
  0
TEXT
  8
NTEXT
 10
3807.26
 20
37253.80
 40
697.50
 41
0.80
  1
２２
 50
90.00
  7
KANJI
  0
TEXT
  8
NTEXT
 10
2333.55
 20
27119.21
 40
675.00
 41
0.96
  1
１８．７ｍジブ
 50
90.00
  7
KANJI
  0
TEXT
  8
NTEXT
 10
2265.56
 20
34734.22
 40
675.00
 41
0.96
  1
２４．９ｍジブ
 50
90.00
  7
KANJI
  0
TEXT
  8
NTEXT
 10
26875.07
 20
30927.67
 40
450.00
 41
0.96
  1
ＪＣＬ０２２Ⅱ
 50
90.00
  7
KANJI
  0
TEXT
  8
NTEXT
 10
31615.82
 20
30221.17
 40
493.83
 41
0.60
  1
12.1m/min
 50
90.00
  7
KANJI
  0
TEXT
  8
NTEXT
 10
31615.82
 20
34616.12
 40
493.83
 41
0.63
  1
24.1m/min
 50
90.00
  7
KANJI
  0
TEXT
  8
NTEXT
 10
23952.64
 20
25079.21
 40
697.50
 41
0.65
  1
１６０００
 50
90.00
  7
KANJI
  0
TEXT
  8
NTEXT
 10
23383.96
 20
16064.43
 40
697.50
 41
0.69
  1
１２５０
 50
180.00
  7
KANJI
  0
TEXT
  8
NTEXT
 10
23952.64
 20
30921.60
 40
697.50
 41
0.70
  1
２２０００
 50
90.00
  7
KANJI
  0
TEXT
  8
NTEXT
 10
14201.44
 20
24364.51
 40
697.50
 41
0.68
  1
１８７００
 50
105.00
  7
KANJI
  0
TEXT
  8
NTEXT
 10
12577.87
 20
30421.24
 40
697.50
 41
0.74
  1
２４９００
 50
105.00
  7
KANJI
  0
TEXT
  8
NTEXT
 10
6633.22
 20
6725.56
 40
697.50
 41
0.74
  1
Ｒ３７００
 50
60.56
  7
KANJI
  0
TEXT
  8
NTEXT
 10
6728.34
 20
11910.46
 40
697.50
 41
0.65
  1
１５００
 50
90.00
  7
KANJI
  0
TEXT
  8
NTEXT
 10
9437.87
 20
6192.82
 40
697.50
 41
0.69
  1
１２８０
 50
180.00
  7
KANJI
  0
TEXT
  8
NTEXT
 10
11461.23
 20
6364.44
 40
697.50
 41
0.69
  1
１５４０
 50
180.00
  7
KANJI
  0
TEXT
  8
NTEXT
 10
18855.99
 20
6479.78
 40
697.50
 41
0.76
  1
６５９０
 50
180.00
  7
KANJI
  0
TEXT
  8
NTEXT
 10
12784.36
 20
9357.96
 40
697.50
 41
0.69
  1
３６１０
 50
90.00
  7
KANJI
  0
TEXT
  8
NTEXT
 10
24011.46
 20
9690.23
 40
697.50
 41
0.76
  1
２５８０
 50
90.00
  7
KANJI
  0
TEXT
  8
NTEXT
 10
30490.01
 20
12515.53
 40
697.50
 41
0.75
  1
φ８１２．８
 50
90.00
  7
KANJI
  0
TEXT
  8
NTEXT
 10
36318.15
 20
17937.80
 40
697.50
 41
0.96
  1
４５００×６＝２７０００
 50
180.00
  7
KANJI
  0
TEXT
  8
NTEXT
 10
39348.65
 20
6479.78
 40
697.50
 41
0.96
  1
最大自立高さ３０４６０
 50
180.00
  7
KANJI
  0
TEXT
  8
NTEXT
 10
49949.90
 20
17937.80
 40
697.50
 41
0.69
  1
４１５０
 50
180.00
  7
KANJI
  0
TEXT
  8
NTEXT
 10
53256.85
 20
17955.98
 40
697.50
 41
0.75
  1
５６０
 50
180.00
  7
KANJI
  0
TEXT
  8
NTEXT
 10
45621.90
 20
15864.97
 40
697.50
 41
0.72
  1
４５００
 50
180.00
  7
KANJI
  0
TEXT
  8
NTEXT
 10
54377.86
 20
16080.20
 40
620.00
 41
0.70
  1
Ｍ４２×１６００－１６本
 50
90.00
  7
KANJI
  0
TEXT
  8
NTEXT
 10
55579.25
 20
16133.59
 40
620.00
 41
0.70
  1
基礎
 50
90.00
  7
KANJI
  0
TEXT
  8
NTEXT
 10
56834.03
 20
16080.20
 40
620.00
 41
0.70
  1
φ２２，＠３００
 50
90.00
  7
KANJI
  0
TEXT
  8
NTEXT
 10
49567.58
 20
14327.65
 40
675.00
 41
0.80
  1
Ａ
 50
90.00
  7
KANJI
  0
TEXT
  8
NTEXT
 10
53332.90
 20
6479.78
 40
697.50
 41
0.65
  1
１５００
 50
180.00
  7
KANJI
  0
TEXT
  8
NTEXT
 10
50810.14
 20
8386.63
 40
697.50
 41
0.75
  1
６９０
 50
180.00
  7
KANJI
  0
TEXT
  8
NTEXT
 10
49448.89
 20
7756.63
 40
630.00
 41
0.65
  1
＋１０
 50
180.00
  7
KANJI
  0
TEXT
  8
NTEXT
 10
49448.89
 20
8386.63
 40
630.00
 41
0.48
  1
　０
 50
180.00
  7
KANJI
  0
TEXT
  8
NTEXT
 10
53103.98
 20
8400.51
 40
697.50
 41
0.65
  1
９１０
 50
180.00
  7
KANJI
  0
TEXT
  8
NTEXT
 10
55406.36
 20
8684.01
 40
450.00
 41
0.96
  1
アンカーボルト
 50
90.00
  7
KANJI
  0
TEXT
  8
NTEXT
 10
55091.83
 20
6583.07
 40
697.50
 41
0.69
  1
３００
 50
90.00
  7
KANJI
  0
TEXT
  8
NTEXT
 10
54529.10
 20
9255.93
 40
675.00
 41
0.96
  1
詳細
 50
134.19
  7
KANJI
  0
TEXT
  8
NTEXT
 10
56045.91
 20
8746.04
 40
450.00
 41
0.96
  1
Ｍ４２×１６００
 50
90.00
  7
KANJI
  0
TEXT
  8
NTEXT
 10
55424.74
 20
4527.25
 40
697.50
 41
0.71
  1
１６６
 50
180.00
  7
KANJI
  0
TEXT
  8
NTEXT
 10
58266.78
 20
4543.96
 40
697.50
 41
0.71
  1
５１９
 50
180.00
  7
KANJI
  0
TEXT
  8
NTEXT
 10
58461.17
 20
5889.08
 40
697.50
 41
0.75
  1
６９０
 50
180.00
  7
KANJI
  0
TEXT
  8
NTEXT
 10
56953.88
 20
5425.29
 40
630.00
 41
0.65
  1
＋１０
 50
180.00
  7
KANJI
  0
TEXT
  8
NTEXT
 10
56884.31
 20
5865.89
 40
630.00
 41
0.48
  1
　０
 50
180.00
  7
KANJI
  0
TEXT
  8
NTEXT
 10
53365.24
 20
31344.78
 40
675.00
 41
0.96
  1
クライミング時ジブ方向
 50
90.00
  7
KANJI
  0
TEXT
  8
NTEXT
 10
56450.01
 20
31283.66
 40
675.00
 41
0.96
  1
Ａー　ベースフレーム
 50
90.00
  7
KANJI
  0
TEXT
  8
NTEXT
 10
50166.20
 20
30297.74
 40
495.00
 41
0.96
  1
地耐力
 50
90.00
  7
KANJI
  0
TEXT
  8
NTEXT
 10
56692.50
 20
30054.62
 40
697.50
 41
0.76
  1
２９６０
 50
135.00
  7
KANJI
  0
TEXT
  8
NTEXT
 10
51154.14
 20
34766.98
 40
495.00
 41
0.96
  1
とした場合の標準基礎
 50
90.00
  7
KANJI
  0
TEXT
  8
NTEXT
 10
51773.51
 20
30423.89
 40
495.00
 41
0.96
  1
短期２０ｔ／ｍ
 50
90.00
  7
KANJI
  0
TEXT
  8
NTEXT
 10
51070.79
 20
30423.89
 40
495.00
 41
0.96
  1
長期１０ｔ／ｍ
 50
90.00
  7
KANJI
  0
TEXT
  8
NTEXT
 10
55687.94
 20
29120.97
 40
697.50
 41
0.72
  1
２６００
 50
135.00
  7
KANJI
  0
TEXT
  8
NTEXT
 10
46756.36
 20
26083.08
 40
697.50
 41
0.96
  1
□４５００
 50
90.00
  7
KANJI
  0
TEXT
  8
NTEXT
 10
49322.62
 20
23539.38
 40
697.50
 41
0.69
  1
３００
 50
135.00
  7
KANJI
  0
TEXT
  8
NTEXT
 10
48771.87
 20
26375.58
 40
697.50
 41
0.73
  1
１８３８
 50
90.00
  7
KANJI
  0
TEXT
  8
NTEXT
 10
47860.75
 20
26375.58
 40
697.50
 41
0.80
  1
２３５８
 50
90.00
  7
KANJI
  0
TEXT
  8
NTEXT
 10
39501.79
 20
3705.94
 40
800.00
 41
0.64
  1
ファイル名　ＪＣＬ－０２２．ｄｘｆ
 50
-0.02
  7
KANJI
  0
TEXT
  8
NTEXT
 10
50722.79
 20
34609.26
 40
500.00
 41
0.64
  1
２
 50
90.00
  7
KANJI
  0
TEXT
  8
NTEXT
 10
51485.13
 20
34637.49
 40
500.00
 41
0.64
  1
２
 50
90.00
  7
KANJI
  0
TEXT
  8
NTEXT
 10
45559.58
 20
4976.70
 40
600.00
 41
0.80
  1
１／２００
 50
0.00
  7
KANJI
  0
ENDSEC
  0
EOF
