  0
SECTION
  2
HEADER
  9
$EXTMIN
 10
   0.0
 20
   0.0
  9
$EXTMAX
 10
32080.0
 20
22800.0
  9
$LIMMIN
 10
   0.0
 20
   0.0
  9
$LIMMAX
 10
32080.0
 20
22800.0
  9
$LTSCALE
 40
800.0
  9
$TEXTSTYLE
  7
BIGFONT
  9
$CLAYER
  8
0
  0
ENDSEC
  0
SECTION
  2
TABLES
  0
TABLE
  2
STYLE
 70
     2
  0
STYLE
  2
STANDARD
 70
     0
 40
0.0
 41
1.0
 50
0.0
 71
     0
 42
0.2
  3
TXT
  4
BIGFONT
  0
STYLE
  2
KANJI
 70
    64
 40
0.0
 41
1.0
 50
0.0
 71
     0
 42
0.2
  3
TXT
  4
BIGFONT
  0
ENDTAB
  0
TABLE
  2
LTYPE
 70
     2
  0
LTYPE
  2
CONTINUOUS
 70
    64
  3
_____________________________________________
 72
    65
 73
     0
 40
0.375
  0
LTYPE
  2
HIDDEN
 70
    64
  3
_ _ _ _ _ _ _ _ _ _ _ _ _ _ _ _ _ _ _ _ _ _ _
 72
    65
 73
     2
 40
0.375
 49
0.25
 49
-0.125
  0
LTYPE
  2
CENTER
 70
    64
  3
____ _ ____ _ ____ _ ____ _ ____ _ ____ _ ____
 72
    65
 73
     4
 40
2.0
 49
1.25
 49
-0.25
 49
0.25
 49
-0.25
  0
LTYPE
  2
DASHED
 70
    64
  3
__ __ __ __ __ __ __ __ __ __ __ __ __ __ __
 72
    65
 73
     2
 40
0.75
 49
0.5
 49
-0.25
  0
LTYPE
  2
PHANTOM
 70
    64
  3
_____ _ _ _____ _ _ _____ _ _ _____ _ _ ____
 72
    65
 73
     6
 40
2.5
 49
1.25
 49
-0.25
 49
0.25
 49
-0.25
 49
0.25
 49
-0.25
  0
ENDTAB
  0
TABLE
  2
LAYER
 70
    18
  0
LAYER
  2
L-1-1
 70
     0
 62
4
  6
CONTINUOUS
  0
LAYER
  2
L-1-2
 70
     0
 62
6
  6
CONTINUOUS
  0
LAYER
  2
L-1-3
 70
     0
 62
2
  6
CONTINUOUS
  0
LAYER
  2
L-2-1
 70
     0
 62
4
  6
HIDDEN
  0
LAYER
  2
L-2-2
 70
     0
 62
6
  6
HIDDEN
  0
LAYER
  2
L-2-3
 70
     0
 62
2
  6
HIDDEN
  0
LAYER
  2
L-3-1
 70
     0
 62
4
  6
CENTER
  0
LAYER
  2
L-3-2
 70
     0
 62
6
  6
CENTER
  0
LAYER
  2
L-3-3
 70
     0
 62
2
  6
CENTER
  0
LAYER
  2
L-4-1
 70
     0
 62
4
  6
DASHED
  0
LAYER
  2
L-4-2
 70
     0
 62
6
  6
DASHED
  0
LAYER
  2
L-4-3
 70
     0
 62
2
  6
DASHED
  0
LAYER
  2
L-5-1
 70
     0
 62
4
  6
PHANTOM
  0
LAYER
  2
L-5-2
 70
     0
 62
6
  6
PHANTOM
  0
LAYER
  2
L-5-3
 70
     0
 62
2
  6
PHANTOM
  0
LAYER
  2
TSHIN
 70
     0
 62
3
  6
CENTER
  0
LAYER
  2
SPLIN
 70
    64
 62
3
  6
CONTINUOUS
  0
LAYER
  2
SPTXT
 70
    64
 62
2
  6
CONTINUOUS
  0
LAYER
  2
NTEXT
 70
    64
 62
2
  6
CONTINUOUS
  0
LAYER
  2
KGLIN
 70
    64
 62
3
  6
CONTINUOUS
  0
LAYER
  2
KGTXT
 70
    64
 62
6
  6
CONTINUOUS
  0
ENDTAB
  0
ENDSEC
  0
SECTION
  2
ENTITIES
  0
LINE
  8
L-1-1
 10
18295.35
 20
7049.32
 11
18295.35
 21
7209.32
  0
LINE
  8
L-1-1
 10
18295.35
 20
6409.32
 11
18295.35
 21
6569.32
  0
LINE
  8
L-1-1
 10
19275.35
 20
6409.32
 11
19274.83
 21
6409.32
  0
LINE
  8
L-1-1
 10
20742.45
 20
7049.32
 11
20742.45
 21
7209.32
  0
LINE
  8
L-1-1
 10
20742.45
 20
6409.32
 11
20742.45
 21
6569.32
  0
LINE
  8
L-1-1
 10
14131.85
 20
7174.32
 11
14131.85
 21
7299.32
  0
LINE
  8
L-1-1
 10
14131.85
 20
7299.32
 11
14066.85
 21
7299.32
  0
LINE
  8
L-1-1
 10
14066.85
 20
7299.32
 11
14066.85
 21
7174.32
  0
LINE
  8
L-1-1
 10
14066.85
 20
7174.32
 11
14131.85
 21
7174.32
  0
LINE
  8
L-1-1
 10
14131.85
 20
4449.55
 11
14131.85
 21
4574.55
  0
LINE
  8
L-1-1
 10
14131.85
 20
4574.55
 11
14066.85
 21
4574.55
  0
LINE
  8
L-1-1
 10
14066.85
 20
4574.55
 11
14066.85
 21
4449.55
  0
LINE
  8
L-1-1
 10
14066.85
 20
4449.55
 11
14131.85
 21
4449.55
  0
LINE
  8
L-1-1
 10
14131.85
 20
5883.82
 11
14131.85
 21
6008.82
  0
LINE
  8
L-1-1
 10
14131.85
 20
6008.82
 11
14066.85
 21
6008.82
  0
LINE
  8
L-1-1
 10
14066.85
 20
6008.82
 11
14066.85
 21
5883.82
  0
LINE
  8
L-1-1
 10
14066.85
 20
5883.82
 11
14131.85
 21
5883.82
  0
LINE
  8
L-1-1
 10
13666.85
 20
4527.05
 11
13666.85
 21
5931.32
  0
LINE
  8
L-1-1
 10
13696.85
 20
4527.05
 11
13696.85
 21
5931.32
  0
LINE
  8
L-1-1
 10
14066.85
 20
7251.82
 11
13246.85
 21
7251.82
  0
LINE
  8
L-1-1
 10
13246.85
 20
7221.82
 11
14066.85
 21
7221.82
  0
LINE
  8
L-1-1
 10
13216.85
 20
4284.32
 11
13246.85
 21
4284.32
  0
LINE
  8
L-1-1
 10
14066.85
 20
5961.32
 11
13246.85
 21
5961.32
  0
LINE
  8
L-1-1
 10
13246.85
 20
5931.32
 11
14066.85
 21
5931.32
  0
LINE
  8
L-1-1
 10
14066.85
 20
4527.05
 11
13246.85
 21
4527.05
  0
LINE
  8
L-1-1
 10
13246.85
 20
4497.05
 11
14066.85
 21
4497.05
  0
LINE
  8
L-1-1
 10
9946.06
 20
4444.94
 11
10391.62
 21
4444.94
  0
LINE
  8
L-1-1
 10
10188.38
 20
4674.03
 11
10188.38
 21
4184.32
  0
CIRCLE
  8
L-1-1
 10
10188.38
 20
4444.94
 40
45.91
  0
CIRCLE
  8
L-1-1
 10
10466.61
 20
4506.22
 40
32.77
  0
CIRCLE
  8
L-1-1
 10
10466.61
 20
4506.22
 40
48.90
  0
LINE
  8
L-1-1
 10
10477.38
 20
4458.52
 11
10563.86
 21
4478.05
  0
LINE
  8
L-1-1
 10
10455.84
 20
4553.92
 11
10542.32
 21
4573.44
  0
LINE
  8
L-1-1
 10
10566.98
 20
4464.21
 11
10539.45
 21
4586.14
  0
LINE
  8
L-1-1
 10
10566.96
 20
4464.32
 11
10196.27
 21
4399.72
  0
LINE
  8
L-1-1
 10
10539.43
 20
4586.25
 11
10431.69
 21
4557.46
  0
LINE
  8
L-1-1
 10
10148.03
 20
4466.83
 11
10273.44
 21
4698.04
  0
ARC
  8
L-1-1
 10
10188.38
 20
4444.94
 40
118.34
 50
84.35
 51
347.06
  0
ARC
  8
L-1-1
 10
10296.95
 20
4530.69
 40
62.50
 50
126.21
 51
308.32
  0
ARC
  8
L-1-1
 10
10351.69
 20
4655.60
 40
89.02
 50
37.27
 51
151.52
  0
LINE
  8
L-1-1
 10
14387.85
 20
6569.32
 11
14387.85
 21
7049.32
  0
LINE
  8
L-1-1
 10
14462.85
 20
6509.32
 11
14462.85
 21
7109.32
  0
LINE
  8
L-1-1
 10
15330.88
 20
7109.32
 11
14988.38
 21
6509.32
  0
LINE
  8
L-1-1
 10
15284.82
 20
7109.32
 11
14942.32
 21
6509.32
  0
LINE
  8
L-1-1
 10
16335.35
 20
6569.32
 11
16310.35
 21
6569.32
  0
LINE
  8
L-1-1
 10
16335.35
 20
7049.32
 11
16310.35
 21
7049.32
  0
LINE
  8
L-1-1
 10
16310.35
 20
6409.32
 11
16310.35
 21
6569.32
  0
LINE
  8
L-1-1
 10
16335.35
 20
6569.32
 11
16360.35
 21
6569.32
  0
LINE
  8
L-1-1
 10
16335.35
 20
7049.32
 11
16360.35
 21
7049.32
  0
LINE
  8
L-1-1
 10
16360.35
 20
6409.32
 11
16360.35
 21
6569.32
  0
LINE
  8
L-1-1
 10
16459.82
 20
7109.32
 11
16802.32
 21
6509.32
  0
LINE
  8
L-1-1
 10
16505.88
 20
7109.32
 11
16848.38
 21
6509.32
  0
LINE
  8
L-1-1
 10
18295.35
 20
6569.32
 11
18270.35
 21
6569.32
  0
LINE
  8
L-1-1
 10
18295.35
 20
7049.32
 11
18270.35
 21
7049.32
  0
LINE
  8
L-1-1
 10
18282.85
 20
6569.32
 11
18282.85
 21
7049.32
  0
LINE
  8
L-1-1
 10
18207.85
 20
6509.32
 11
18207.85
 21
7109.32
  0
LINE
  8
L-1-1
 10
18295.35
 20
6569.32
 11
18320.35
 21
6569.32
  0
LINE
  8
L-1-1
 10
18295.35
 20
7049.32
 11
18320.35
 21
7049.32
  0
LINE
  8
L-1-1
 10
18320.35
 20
6409.32
 11
18320.35
 21
6569.32
  0
LINE
  8
L-1-1
 10
18320.35
 20
7049.32
 11
18320.35
 21
7209.32
  0
LINE
  8
L-1-1
 10
18307.85
 20
6569.32
 11
18307.85
 21
7049.32
  0
LINE
  8
L-1-1
 10
18382.85
 20
6509.32
 11
18382.85
 21
7109.32
  0
LINE
  8
L-1-1
 10
18419.82
 20
7109.32
 11
18762.32
 21
6509.32
  0
LINE
  8
L-1-1
 10
18465.88
 20
7109.32
 11
18808.38
 21
6509.32
  0
LINE
  8
L-1-1
 10
19250.88
 20
7109.32
 11
18908.38
 21
6509.32
  0
LINE
  8
L-1-1
 10
19204.82
 20
7109.32
 11
18862.32
 21
6509.32
  0
LINE
  8
L-1-1
 10
19275.35
 20
6509.32
 11
18295.35
 21
6509.32
  0
LINE
  8
L-1-1
 10
18295.35
 20
7109.32
 11
19275.35
 21
7109.32
  0
LINE
  8
L-1-1
 10
18295.35
 20
7209.32
 11
19275.35
 21
7209.32
  0
LINE
  8
L-1-1
 10
19299.82
 20
7109.32
 11
19476.21
 21
6800.32
  0
LINE
  8
L-1-1
 10
19345.88
 20
7109.32
 11
19498.05
 21
6842.73
  0
LINE
  8
L-1-1
 10
19275.35
 20
6509.32
 11
19326.34
 21
6509.32
  0
LINE
  8
L-1-1
 10
19635.35
 20
7109.32
 11
19275.35
 21
7109.32
  0
LINE
  8
L-1-1
 10
19274.83
 20
6409.32
 11
18295.35
 21
6409.32
  0
LINE
  8
L-1-1
 10
19686.85
 20
7209.32
 11
19275.35
 21
7209.32
  0
LINE
  8
L-1-1
 10
20742.45
 20
6569.32
 11
20717.45
 21
6569.32
  0
LINE
  8
L-1-1
 10
20742.45
 20
7049.32
 11
20717.45
 21
7049.32
  0
LINE
  8
L-1-1
 10
20717.45
 20
6409.32
 11
20717.45
 21
6569.32
  0
LINE
  8
L-1-1
 10
20717.45
 20
7049.32
 11
20717.45
 21
7209.32
  0
LINE
  8
L-1-1
 10
20729.95
 20
6569.32
 11
20729.95
 21
7049.32
  0
LINE
  8
L-1-1
 10
20654.95
 20
6509.32
 11
20654.95
 21
7109.32
  0
LINE
  8
L-1-1
 10
20617.98
 20
7109.32
 11
20275.48
 21
6509.32
  0
LINE
  8
L-1-1
 10
20571.92
 20
7109.32
 11
20229.42
 21
6509.32
  0
LINE
  8
L-1-1
 10
19762.45
 20
6409.32
 11
20742.45
 21
6409.32
  0
LINE
  8
L-1-1
 10
19963.30
 20
6800.32
 11
20129.42
 21
6509.32
  0
LINE
  8
L-1-1
 10
19985.15
 20
6842.73
 11
20175.48
 21
6509.32
  0
LINE
  8
L-1-1
 10
19813.43
 20
6509.32
 11
20742.45
 21
6509.32
  0
LINE
  8
L-1-1
 10
20742.45
 20
7109.32
 11
20122.44
 21
7109.32
  0
LINE
  8
L-1-1
 10
20742.45
 20
7209.32
 11
20173.95
 21
7209.32
  0
LINE
  8
L-1-1
 10
20742.45
 20
6569.32
 11
20767.45
 21
6569.32
  0
LINE
  8
L-1-1
 10
20742.45
 20
7049.32
 11
20767.45
 21
7049.32
  0
LINE
  8
L-1-1
 10
20767.45
 20
6409.32
 11
20767.45
 21
6569.32
  0
LINE
  8
L-1-1
 10
20767.45
 20
7049.32
 11
20767.45
 21
7209.32
  0
LINE
  8
L-1-1
 10
20754.95
 20
6569.32
 11
20754.95
 21
7049.32
  0
LINE
  8
L-1-1
 10
20829.95
 20
6509.32
 11
20829.95
 21
7109.32
  0
LINE
  8
L-1-1
 10
20866.92
 20
7109.32
 11
21209.42
 21
6509.32
  0
LINE
  8
L-1-1
 10
20912.98
 20
7109.32
 11
21255.48
 21
6509.32
  0
LINE
  8
L-1-1
 10
21697.98
 20
7109.32
 11
21355.48
 21
6509.32
  0
LINE
  8
L-1-1
 10
21651.92
 20
7109.32
 11
21309.42
 21
6509.32
  0
LINE
  8
L-1-1
 10
21722.45
 20
6509.32
 11
20742.45
 21
6509.32
  0
LINE
  8
L-1-1
 10
20742.45
 20
7109.32
 11
21722.45
 21
7109.32
  0
LINE
  8
L-1-1
 10
20742.45
 20
7049.32
 11
20742.45
 21
7209.32
  0
LINE
  8
L-1-1
 10
20742.45
 20
7209.32
 11
21722.45
 21
7209.32
  0
LINE
  8
L-1-1
 10
21722.45
 20
7209.32
 11
20742.45
 21
7049.32
  0
LINE
  8
L-1-1
 10
21722.45
 20
6409.32
 11
20742.45
 21
6409.32
  0
LINE
  8
L-1-1
 10
20742.45
 20
6409.32
 11
20742.45
 21
6569.32
  0
LINE
  8
L-1-1
 10
20742.45
 20
6569.32
 11
21722.45
 21
6409.32
  0
LINE
  8
L-1-1
 10
22702.45
 20
6569.32
 11
22677.45
 21
6569.32
  0
LINE
  8
L-1-1
 10
22702.45
 20
7049.32
 11
22677.45
 21
7049.32
  0
LINE
  8
L-1-1
 10
22677.45
 20
6409.32
 11
22677.45
 21
6569.32
  0
LINE
  8
L-1-1
 10
22677.45
 20
7049.32
 11
22677.45
 21
7209.32
  0
LINE
  8
L-1-1
 10
22689.95
 20
6569.32
 11
22689.95
 21
7049.32
  0
LINE
  8
L-1-1
 10
22614.95
 20
6509.32
 11
22614.95
 21
7109.32
  0
LINE
  8
L-1-1
 10
22577.98
 20
7109.32
 11
22235.48
 21
6509.32
  0
LINE
  8
L-1-1
 10
22531.92
 20
7109.32
 11
22189.42
 21
6509.32
  0
LINE
  8
L-1-1
 10
21746.92
 20
7109.32
 11
22089.42
 21
6509.32
  0
LINE
  8
L-1-1
 10
21792.98
 20
7109.32
 11
22135.48
 21
6509.32
  0
LINE
  8
L-1-1
 10
21722.45
 20
6509.32
 11
22702.45
 21
6509.32
  0
LINE
  8
L-1-1
 10
22702.45
 20
7109.32
 11
21722.45
 21
7109.32
  0
LINE
  8
L-1-1
 10
22702.45
 20
7049.32
 11
22702.45
 21
7209.32
  0
LINE
  8
L-1-1
 10
22702.45
 20
7209.32
 11
21722.45
 21
7209.32
  0
LINE
  8
L-1-1
 10
21722.45
 20
7209.32
 11
22702.45
 21
7049.32
  0
LINE
  8
L-1-1
 10
21722.45
 20
6409.32
 11
22702.45
 21
6409.32
  0
LINE
  8
L-1-1
 10
22702.45
 20
6409.32
 11
22702.45
 21
6569.32
  0
LINE
  8
L-1-1
 10
22702.45
 20
6569.32
 11
21722.45
 21
6409.32
  0
LINE
  8
L-1-1
 10
22702.45
 20
6569.32
 11
22727.45
 21
6569.32
  0
LINE
  8
L-1-1
 10
22702.45
 20
7049.32
 11
22727.45
 21
7049.32
  0
LINE
  8
L-1-1
 10
22727.45
 20
6409.32
 11
22727.45
 21
6569.32
  0
LINE
  8
L-1-1
 10
22727.45
 20
7049.32
 11
22727.45
 21
7209.32
  0
LINE
  8
L-1-1
 10
22714.95
 20
6569.32
 11
22714.95
 21
7049.32
  0
LINE
  8
L-1-1
 10
22789.95
 20
6509.32
 11
22789.95
 21
7109.32
  0
LINE
  8
L-1-1
 10
22826.92
 20
7109.32
 11
23169.42
 21
6509.32
  0
LINE
  8
L-1-1
 10
22872.98
 20
7109.32
 11
23215.48
 21
6509.32
  0
LINE
  8
L-1-1
 10
23657.98
 20
7109.32
 11
23315.48
 21
6509.32
  0
LINE
  8
L-1-1
 10
23611.92
 20
7109.32
 11
23269.42
 21
6509.32
  0
LINE
  8
L-1-1
 10
23682.45
 20
6509.32
 11
22702.45
 21
6509.32
  0
LINE
  8
L-1-1
 10
22702.45
 20
7109.32
 11
23682.45
 21
7109.32
  0
LINE
  8
L-1-1
 10
22702.45
 20
7049.32
 11
22702.45
 21
7209.32
  0
LINE
  8
L-1-1
 10
22702.45
 20
7209.32
 11
23682.45
 21
7209.32
  0
LINE
  8
L-1-1
 10
23682.45
 20
7209.32
 11
22702.45
 21
7049.32
  0
LINE
  8
L-1-1
 10
23682.45
 20
6409.32
 11
22702.45
 21
6409.32
  0
LINE
  8
L-1-1
 10
22702.45
 20
6409.32
 11
22702.45
 21
6569.32
  0
LINE
  8
L-1-1
 10
22702.45
 20
6569.32
 11
23682.45
 21
6409.32
  0
LINE
  8
L-1-1
 10
24662.45
 20
6569.32
 11
24637.45
 21
6569.32
  0
LINE
  8
L-1-1
 10
24662.45
 20
7049.32
 11
24637.45
 21
7049.32
  0
LINE
  8
L-1-1
 10
24637.45
 20
6409.32
 11
24637.45
 21
6569.32
  0
LINE
  8
L-1-1
 10
24637.45
 20
7049.32
 11
24637.45
 21
7209.32
  0
LINE
  8
L-1-1
 10
24649.95
 20
6569.32
 11
24649.95
 21
7049.32
  0
LINE
  8
L-1-1
 10
24574.95
 20
6509.32
 11
24574.95
 21
7109.32
  0
LINE
  8
L-1-1
 10
24537.98
 20
7109.32
 11
24195.48
 21
6509.32
  0
LINE
  8
L-1-1
 10
24491.92
 20
7109.32
 11
24149.42
 21
6509.32
  0
LINE
  8
L-1-1
 10
23706.92
 20
7109.32
 11
24049.42
 21
6509.32
  0
LINE
  8
L-1-1
 10
23752.98
 20
7109.32
 11
24095.48
 21
6509.32
  0
LINE
  8
L-1-1
 10
23682.45
 20
6509.32
 11
24662.45
 21
6509.32
  0
LINE
  8
L-1-1
 10
24662.45
 20
7109.32
 11
23682.45
 21
7109.32
  0
LINE
  8
L-1-1
 10
24662.45
 20
7049.32
 11
24662.45
 21
7209.32
  0
LINE
  8
L-1-1
 10
24662.45
 20
7209.32
 11
23682.45
 21
7209.32
  0
LINE
  8
L-1-1
 10
23682.45
 20
7209.32
 11
24662.45
 21
7049.32
  0
LINE
  8
L-1-1
 10
23682.45
 20
6409.32
 11
24662.45
 21
6409.32
  0
LINE
  8
L-1-1
 10
24662.45
 20
6409.32
 11
24662.45
 21
6569.32
  0
LINE
  8
L-1-1
 10
24662.45
 20
6569.32
 11
23682.45
 21
6409.32
  0
LINE
  8
L-1-1
 10
24662.45
 20
6569.32
 11
24687.45
 21
6569.32
  0
LINE
  8
L-1-1
 10
24662.45
 20
7049.32
 11
24687.45
 21
7049.32
  0
LINE
  8
L-1-1
 10
24687.45
 20
6409.32
 11
24687.45
 21
6569.32
  0
LINE
  8
L-1-1
 10
24687.45
 20
7049.32
 11
24687.45
 21
7209.32
  0
LINE
  8
L-1-1
 10
24674.95
 20
6569.32
 11
24674.95
 21
7049.32
  0
LINE
  8
L-1-1
 10
24749.95
 20
6509.32
 11
24749.95
 21
7109.32
  0
LINE
  8
L-1-1
 10
24786.92
 20
7109.32
 11
25129.42
 21
6509.32
  0
LINE
  8
L-1-1
 10
24832.98
 20
7109.32
 11
25175.48
 21
6509.32
  0
LINE
  8
L-1-1
 10
25617.98
 20
7109.32
 11
25275.48
 21
6509.32
  0
LINE
  8
L-1-1
 10
25571.92
 20
7109.32
 11
25229.42
 21
6509.32
  0
LINE
  8
L-1-1
 10
25642.45
 20
6509.32
 11
24662.45
 21
6509.32
  0
LINE
  8
L-1-1
 10
24662.45
 20
7109.32
 11
25642.45
 21
7109.32
  0
LINE
  8
L-1-1
 10
24662.45
 20
7049.32
 11
24662.45
 21
7209.32
  0
LINE
  8
L-1-1
 10
24662.45
 20
7209.32
 11
25642.45
 21
7209.32
  0
LINE
  8
L-1-1
 10
25642.45
 20
7209.32
 11
24662.45
 21
7049.32
  0
LINE
  8
L-1-1
 10
25642.45
 20
6409.32
 11
24662.45
 21
6409.32
  0
LINE
  8
L-1-1
 10
24662.45
 20
6409.32
 11
24662.45
 21
6569.32
  0
LINE
  8
L-1-1
 10
24662.45
 20
6569.32
 11
25642.45
 21
6409.32
  0
LINE
  8
L-1-1
 10
26622.45
 20
6569.32
 11
26597.45
 21
6569.32
  0
LINE
  8
L-1-1
 10
26622.45
 20
7049.32
 11
26597.45
 21
7049.32
  0
LINE
  8
L-1-1
 10
26597.45
 20
6409.32
 11
26597.45
 21
6569.32
  0
LINE
  8
L-1-1
 10
26597.45
 20
7049.32
 11
26597.45
 21
7209.32
  0
LINE
  8
L-1-1
 10
26609.95
 20
6569.32
 11
26609.95
 21
7049.32
  0
LINE
  8
L-1-1
 10
26534.95
 20
6509.32
 11
26534.95
 21
7109.32
  0
LINE
  8
L-1-1
 10
26497.98
 20
7109.32
 11
26155.48
 21
6509.32
  0
LINE
  8
L-1-1
 10
26451.92
 20
7109.32
 11
26109.42
 21
6509.32
  0
LINE
  8
L-1-1
 10
25666.92
 20
7109.32
 11
26009.42
 21
6509.32
  0
LINE
  8
L-1-1
 10
25712.98
 20
7109.32
 11
26055.48
 21
6509.32
  0
LINE
  8
L-1-1
 10
25642.45
 20
6509.32
 11
26622.45
 21
6509.32
  0
LINE
  8
L-1-1
 10
26622.45
 20
7109.32
 11
25642.45
 21
7109.32
  0
LINE
  8
L-1-1
 10
26622.45
 20
7049.32
 11
26622.45
 21
7209.32
  0
LINE
  8
L-1-1
 10
26622.45
 20
7209.32
 11
25642.45
 21
7209.32
  0
LINE
  8
L-1-1
 10
25642.45
 20
7209.32
 11
26622.45
 21
7049.32
  0
LINE
  8
L-1-1
 10
25642.45
 20
6409.32
 11
26622.45
 21
6409.32
  0
LINE
  8
L-1-1
 10
26622.45
 20
6409.32
 11
26622.45
 21
6569.32
  0
LINE
  8
L-1-1
 10
26622.45
 20
6569.32
 11
25642.45
 21
6409.32
  0
LINE
  8
L-1-1
 10
26622.45
 20
6569.32
 11
26647.45
 21
6569.32
  0
LINE
  8
L-1-1
 10
26622.45
 20
7049.32
 11
26647.45
 21
7049.32
  0
LINE
  8
L-1-1
 10
26647.45
 20
6409.32
 11
26647.45
 21
6569.32
  0
LINE
  8
L-1-1
 10
26647.45
 20
7049.32
 11
26647.45
 21
7209.32
  0
LINE
  8
L-1-1
 10
26634.95
 20
6569.32
 11
26634.95
 21
7049.32
  0
LINE
  8
L-1-1
 10
26709.95
 20
6509.32
 11
26709.95
 21
7109.32
  0
LINE
  8
L-1-1
 10
26746.92
 20
7109.32
 11
27089.42
 21
6509.32
  0
LINE
  8
L-1-1
 10
26792.98
 20
7109.32
 11
27135.48
 21
6509.32
  0
LINE
  8
L-1-1
 10
27577.98
 20
7109.32
 11
27235.48
 21
6509.32
  0
LINE
  8
L-1-1
 10
27531.92
 20
7109.32
 11
27189.42
 21
6509.32
  0
LINE
  8
L-1-1
 10
27602.45
 20
6509.32
 11
26622.45
 21
6509.32
  0
LINE
  8
L-1-1
 10
26622.45
 20
7109.32
 11
27602.45
 21
7109.32
  0
LINE
  8
L-1-1
 10
26622.45
 20
7049.32
 11
26622.45
 21
7209.32
  0
LINE
  8
L-1-1
 10
26622.45
 20
7209.32
 11
27602.45
 21
7209.32
  0
LINE
  8
L-1-1
 10
27602.45
 20
7209.32
 11
26622.45
 21
7049.32
  0
LINE
  8
L-1-1
 10
27602.45
 20
6409.32
 11
26622.45
 21
6409.32
  0
LINE
  8
L-1-1
 10
26622.45
 20
6409.32
 11
26622.45
 21
6569.32
  0
LINE
  8
L-1-1
 10
26622.45
 20
6569.32
 11
27602.45
 21
6409.32
  0
LINE
  8
L-1-1
 10
28582.45
 20
6569.32
 11
28557.45
 21
6569.32
  0
LINE
  8
L-1-1
 10
28582.45
 20
7049.32
 11
28557.45
 21
7049.32
  0
LINE
  8
L-1-1
 10
28557.45
 20
6409.32
 11
28557.45
 21
6569.32
  0
LINE
  8
L-1-1
 10
28557.45
 20
7049.32
 11
28557.45
 21
7209.32
  0
LINE
  8
L-1-1
 10
28569.95
 20
6569.32
 11
28569.95
 21
7049.32
  0
LINE
  8
L-1-1
 10
28494.95
 20
6509.32
 11
28494.95
 21
7109.32
  0
LINE
  8
L-1-1
 10
28457.98
 20
7109.32
 11
28115.48
 21
6509.32
  0
LINE
  8
L-1-1
 10
28411.92
 20
7109.32
 11
28069.42
 21
6509.32
  0
LINE
  8
L-1-1
 10
27626.92
 20
7109.32
 11
27969.42
 21
6509.32
  0
LINE
  8
L-1-1
 10
27672.98
 20
7109.32
 11
28015.48
 21
6509.32
  0
LINE
  8
L-1-1
 10
27602.45
 20
6509.32
 11
28582.45
 21
6509.32
  0
LINE
  8
L-1-1
 10
28582.45
 20
7109.32
 11
27602.45
 21
7109.32
  0
LINE
  8
L-1-1
 10
28582.45
 20
7049.32
 11
28582.45
 21
7209.32
  0
LINE
  8
L-1-1
 10
28582.45
 20
7209.32
 11
27602.45
 21
7209.32
  0
LINE
  8
L-1-1
 10
27602.45
 20
7209.32
 11
28582.45
 21
7049.32
  0
LINE
  8
L-1-1
 10
27602.45
 20
6409.32
 11
28582.45
 21
6409.32
  0
LINE
  8
L-1-1
 10
28582.45
 20
6409.32
 11
28582.45
 21
6569.32
  0
LINE
  8
L-1-1
 10
28582.45
 20
6569.32
 11
27602.45
 21
6409.32
  0
LINE
  8
L-1-1
 10
28582.45
 20
6569.32
 11
28607.45
 21
6569.32
  0
LINE
  8
L-1-1
 10
28582.45
 20
7049.32
 11
28607.45
 21
7049.32
  0
LINE
  8
L-1-1
 10
28607.45
 20
6409.32
 11
28607.45
 21
6569.32
  0
LINE
  8
L-1-1
 10
28607.45
 20
7049.32
 11
28607.45
 21
7209.32
  0
LINE
  8
L-1-1
 10
28594.95
 20
6569.32
 11
28594.95
 21
7049.32
  0
LINE
  8
L-1-1
 10
28669.95
 20
6509.32
 11
28669.95
 21
7109.32
  0
LINE
  8
L-1-1
 10
28706.92
 20
7109.32
 11
29049.42
 21
6509.32
  0
LINE
  8
L-1-1
 10
28752.98
 20
7109.32
 11
29095.48
 21
6509.32
  0
LINE
  8
L-1-1
 10
29537.98
 20
7109.32
 11
29195.48
 21
6509.32
  0
LINE
  8
L-1-1
 10
29491.92
 20
7109.32
 11
29149.42
 21
6509.32
  0
LINE
  8
L-1-1
 10
29562.45
 20
6509.32
 11
28582.45
 21
6509.32
  0
LINE
  8
L-1-1
 10
28582.45
 20
7109.32
 11
29562.45
 21
7109.32
  0
LINE
  8
L-1-1
 10
28582.45
 20
7049.32
 11
28582.45
 21
7209.32
  0
LINE
  8
L-1-1
 10
28582.45
 20
7209.32
 11
29562.45
 21
7209.32
  0
LINE
  8
L-1-1
 10
29562.45
 20
7209.32
 11
28582.45
 21
7049.32
  0
LINE
  8
L-1-1
 10
29562.45
 20
6409.32
 11
28582.45
 21
6409.32
  0
LINE
  8
L-1-1
 10
28582.45
 20
6409.32
 11
28582.45
 21
6569.32
  0
LINE
  8
L-1-1
 10
28582.45
 20
6569.32
 11
29562.45
 21
6409.32
  0
LINE
  8
L-1-1
 10
30542.45
 20
6569.32
 11
30517.45
 21
6569.32
  0
LINE
  8
L-1-1
 10
30542.45
 20
7049.32
 11
30517.45
 21
7049.32
  0
LINE
  8
L-1-1
 10
30517.45
 20
6409.32
 11
30517.45
 21
6569.32
  0
LINE
  8
L-1-1
 10
30517.45
 20
7049.32
 11
30517.45
 21
7209.32
  0
LINE
  8
L-1-1
 10
30529.95
 20
6569.32
 11
30529.95
 21
7049.32
  0
LINE
  8
L-1-1
 10
30454.95
 20
6509.32
 11
30454.95
 21
7109.32
  0
LINE
  8
L-1-1
 10
30417.98
 20
7109.32
 11
30075.48
 21
6509.32
  0
LINE
  8
L-1-1
 10
30371.92
 20
7109.32
 11
30029.42
 21
6509.32
  0
LINE
  8
L-1-1
 10
29586.92
 20
7109.32
 11
29929.42
 21
6509.32
  0
LINE
  8
L-1-1
 10
29632.98
 20
7109.32
 11
29975.48
 21
6509.32
  0
LINE
  8
L-1-1
 10
29562.45
 20
6509.32
 11
30542.45
 21
6509.32
  0
LINE
  8
L-1-1
 10
30542.45
 20
7109.32
 11
29562.45
 21
7109.32
  0
LINE
  8
L-1-1
 10
30542.45
 20
7049.32
 11
30542.45
 21
7209.32
  0
LINE
  8
L-1-1
 10
30542.45
 20
7209.32
 11
29562.45
 21
7209.32
  0
LINE
  8
L-1-1
 10
29562.45
 20
7209.32
 11
30542.45
 21
7049.32
  0
LINE
  8
L-1-1
 10
29562.45
 20
6409.32
 11
30542.45
 21
6409.32
  0
LINE
  8
L-1-1
 10
30542.45
 20
6409.32
 11
30542.45
 21
6569.32
  0
LINE
  8
L-1-1
 10
30542.45
 20
6569.32
 11
29562.45
 21
6409.32
  0
LINE
  8
L-1-1
 10
30542.45
 20
5659.32
 11
30792.45
 21
5659.32
  0
LINE
  8
L-1-1
 10
30542.45
 20
7959.32
 11
30792.45
 21
7959.32
  0
LINE
  8
L-1-1
 10
30842.45
 20
4864.94
 11
30842.45
 21
8818.57
  0
LINE
  8
L-1-1
 10
30792.45
 20
5559.32
 11
30842.45
 21
5559.32
  0
LINE
  8
L-1-1
 10
30792.45
 20
8059.32
 11
30842.45
 21
8059.32
  0
LINE
  8
L-1-1
 10
30542.45
 20
8059.32
 11
30542.45
 21
5559.32
  0
LINE
  8
L-1-1
 10
30792.45
 20
5559.32
 11
30792.45
 21
8059.32
  0
LINE
  8
L-1-1
 10
14766.35
 20
7329.32
 11
14841.35
 21
7329.32
  0
LINE
  8
L-1-1
 10
14841.35
 20
7329.32
 11
14841.35
 21
6289.32
  0
LINE
  8
L-1-1
 10
14841.35
 20
6289.32
 11
14766.35
 21
6289.32
  0
LINE
  8
L-1-1
 10
14766.35
 20
6289.32
 11
14766.35
 21
7329.32
  0
LINE
  8
L-1-1
 10
18041.35
 20
7329.32
 11
18116.35
 21
7329.32
  0
LINE
  8
L-1-1
 10
18116.35
 20
7329.32
 11
18116.35
 21
6289.32
  0
LINE
  8
L-1-1
 10
18116.35
 20
6289.32
 11
18041.35
 21
6289.32
  0
LINE
  8
L-1-1
 10
18041.35
 20
6289.32
 11
18041.35
 21
7329.32
  0
LINE
  8
L-1-1
 10
14816.35
 20
7489.32
 11
14866.35
 21
7489.32
  0
LINE
  8
L-1-1
 10
14866.35
 20
7489.32
 11
14866.35
 21
7329.32
  0
LINE
  8
L-1-1
 10
14866.35
 20
7329.32
 11
14816.35
 21
7329.32
  0
LINE
  8
L-1-1
 10
14816.35
 20
7329.32
 11
14816.35
 21
7489.32
  0
LINE
  8
L-1-1
 10
15943.85
 20
7659.32
 11
14966.35
 21
7329.32
  0
LINE
  8
L-1-1
 10
17093.85
 20
7659.32
 11
18041.35
 21
7329.32
  0
LINE
  8
L-1-1
 10
15943.85
 20
7659.32
 11
17093.85
 21
7659.32
  0
LINE
  8
L-1-1
 10
14766.35
 20
7279.58
 11
14716.35
 21
7326.86
  0
LINE
  8
L-1-1
 10
15966.35
 20
7584.32
 11
16031.35
 21
7584.32
  0
LINE
  8
L-1-1
 10
16031.35
 20
7584.32
 11
16031.35
 21
6289.32
  0
LINE
  8
L-1-1
 10
16031.35
 20
6289.32
 11
15966.35
 21
6289.32
  0
LINE
  8
L-1-1
 10
15966.35
 20
6289.32
 11
15966.35
 21
7584.32
  0
LINE
  8
L-1-1
 10
17006.35
 20
7584.32
 11
17071.35
 21
7584.32
  0
LINE
  8
L-1-1
 10
17071.35
 20
7584.32
 11
17071.35
 21
6289.32
  0
LINE
  8
L-1-1
 10
17071.35
 20
6289.32
 11
17006.35
 21
6289.32
  0
LINE
  8
L-1-1
 10
17006.35
 20
6289.32
 11
17006.35
 21
7584.32
  0
LINE
  8
L-1-1
 10
17231.35
 20
7536.16
 11
17381.35
 21
7536.16
  0
LINE
  8
L-1-1
 10
18116.35
 20
7329.32
 11
18125.35
 21
7329.32
  0
LINE
  8
L-1-1
 10
18125.35
 20
7329.32
 11
18125.35
 21
7139.32
  0
LINE
  8
L-1-1
 10
18125.35
 20
7139.32
 11
18116.35
 21
7139.32
  0
LINE
  8
L-1-1
 10
18116.35
 20
7139.32
 11
18116.35
 21
7329.32
  0
LINE
  8
L-1-1
 10
18286.35
 20
7289.32
 11
18286.35
 21
7139.32
  0
LINE
  8
L-1-1
 10
18286.35
 20
7139.32
 11
18295.35
 21
7139.32
  0
LINE
  8
L-1-1
 10
18295.35
 20
7139.32
 11
18295.35
 21
7289.32
  0
LINE
  8
L-1-1
 10
18295.35
 20
7289.32
 11
18286.35
 21
7289.32
  0
LINE
  8
L-1-1
 10
18125.35
 20
7329.32
 11
18145.35
 21
7329.32
  0
LINE
  8
L-1-1
 10
18145.35
 20
7329.32
 11
18286.35
 21
7289.32
  0
LINE
  8
L-1-1
 10
18125.35
 20
7321.32
 11
18144.24
 21
7321.32
  0
LINE
  8
L-1-1
 10
18144.24
 20
7321.32
 11
18286.32
 21
7281.01
  0
LINE
  8
L-1-1
 10
18125.35
 20
7269.32
 11
18145.35
 21
7269.32
  0
LINE
  8
L-1-1
 10
18145.35
 20
7269.32
 11
18286.35
 21
7229.32
  0
LINE
  8
L-1-1
 10
18125.35
 20
7261.32
 11
18144.24
 21
7261.32
  0
LINE
  8
L-1-1
 10
18144.24
 20
7261.32
 11
18286.32
 21
7221.01
  0
LINE
  8
L-1-1
 10
18125.35
 20
7139.32
 11
18176.18
 21
7110.68
  0
ARC
  8
L-1-1
 10
18198.80
 20
7150.84
 40
46.09
 50
240.60
 51
293.96
  0
LINE
  8
L-1-1
 10
18217.52
 20
7108.72
 11
18286.35
 21
7139.32
  0
LINE
  8
L-1-1
 10
18175.51
 20
7260.76
 11
18176.71
 21
7262.56
  0
LINE
  8
L-1-1
 10
18176.71
 20
7262.56
 11
18178.23
 21
7264.24
  0
LINE
  8
L-1-1
 10
18178.23
 20
7264.24
 11
18180.03
 21
7265.77
  0
LINE
  8
L-1-1
 10
18180.03
 20
7265.77
 11
18182.08
 21
7267.14
  0
LINE
  8
L-1-1
 10
18182.08
 20
7267.14
 11
18184.36
 21
7268.30
  0
LINE
  8
L-1-1
 10
18184.36
 20
7268.30
 11
18186.83
 21
7269.26
  0
LINE
  8
L-1-1
 10
18186.83
 20
7269.26
 11
18189.44
 21
7269.99
  0
LINE
  8
L-1-1
 10
18189.44
 20
7269.99
 11
18192.17
 21
7270.49
  0
LINE
  8
L-1-1
 10
18192.17
 20
7270.49
 11
18194.96
 21
7270.74
  0
LINE
  8
L-1-1
 10
18194.96
 20
7270.74
 11
18197.77
 21
7270.74
  0
LINE
  8
L-1-1
 10
18197.77
 20
7270.74
 11
18200.56
 21
7270.49
  0
LINE
  8
L-1-1
 10
18200.56
 20
7270.49
 11
18203.28
 21
7269.99
  0
LINE
  8
L-1-1
 10
18203.28
 20
7269.99
 11
18205.90
 21
7269.26
  0
LINE
  8
L-1-1
 10
18205.90
 20
7269.26
 11
18208.37
 21
7268.30
  0
LINE
  8
L-1-1
 10
18208.37
 20
7268.30
 11
18210.65
 21
7267.13
  0
LINE
  8
L-1-1
 10
18210.65
 20
7267.13
 11
18212.70
 21
7265.77
  0
LINE
  8
L-1-1
 10
18212.70
 20
7265.77
 11
18214.50
 21
7264.23
  0
LINE
  8
L-1-1
 10
18214.50
 20
7264.23
 11
18216.01
 21
7262.55
  0
LINE
  8
L-1-1
 10
18216.01
 20
7262.55
 11
18217.22
 21
7260.75
  0
LINE
  8
L-1-1
 10
18217.22
 20
7260.75
 11
18218.09
 21
7258.86
  0
LINE
  8
L-1-1
 10
18218.09
 20
7258.86
 11
18218.63
 21
7256.90
  0
LINE
  8
L-1-1
 10
18218.63
 20
7256.90
 11
18218.82
 21
7254.91
  0
LINE
  8
L-1-1
 10
18218.82
 20
7254.91
 11
18218.65
 21
7252.92
  0
LINE
  8
L-1-1
 10
18218.65
 20
7252.92
 11
18218.14
 21
7250.96
  0
LINE
  8
L-1-1
 10
18218.14
 20
7250.96
 11
18217.28
 21
7249.06
  0
LINE
  8
L-1-1
 10
18217.28
 20
7249.06
 11
18217.19
 21
7248.93
  0
LINE
  8
L-1-1
 10
18217.19
 20
7248.93
 11
18175.51
 21
7260.76
  0
LINE
  8
L-1-1
 10
18205.33
 20
7216.80
 11
18205.26
 21
7216.00
  0
LINE
  8
L-1-1
 10
18205.26
 20
7216.00
 11
18205.05
 21
7215.22
  0
LINE
  8
L-1-1
 10
18205.05
 20
7215.22
 11
18204.71
 21
7214.46
  0
LINE
  8
L-1-1
 10
18204.71
 20
7214.46
 11
18204.23
 21
7213.74
  0
LINE
  8
L-1-1
 10
18204.23
 20
7213.74
 11
18203.63
 21
7213.07
  0
LINE
  8
L-1-1
 10
18203.63
 20
7213.07
 11
18202.91
 21
7212.45
  0
LINE
  8
L-1-1
 10
18202.91
 20
7212.45
 11
18202.09
 21
7211.90
  0
LINE
  8
L-1-1
 10
18202.09
 20
7211.90
 11
18201.19
 21
7211.43
  0
LINE
  8
L-1-1
 10
18201.19
 20
7211.43
 11
18200.20
 21
7211.05
  0
LINE
  8
L-1-1
 10
18200.20
 20
7211.05
 11
18199.16
 21
7210.75
  0
LINE
  8
L-1-1
 10
18199.16
 20
7210.75
 11
18198.07
 21
7210.55
  0
LINE
  8
L-1-1
 10
18198.07
 20
7210.55
 11
18196.95
 21
7210.45
  0
LINE
  8
L-1-1
 10
18196.95
 20
7210.45
 11
18195.83
 21
7210.44
  0
LINE
  8
L-1-1
 10
18195.83
 20
7210.44
 11
18194.71
 21
7210.54
  0
LINE
  8
L-1-1
 10
18194.71
 20
7210.54
 11
18193.62
 21
7210.73
  0
LINE
  8
L-1-1
 10
18193.62
 20
7210.73
 11
18192.57
 21
7211.02
  0
LINE
  8
L-1-1
 10
18192.57
 20
7211.02
 11
18191.58
 21
7211.40
  0
LINE
  8
L-1-1
 10
18191.58
 20
7211.40
 11
18190.67
 21
7211.87
  0
LINE
  8
L-1-1
 10
18190.67
 20
7211.87
 11
18189.84
 21
7212.41
  0
LINE
  8
L-1-1
 10
18189.84
 20
7212.41
 11
18189.12
 21
7213.02
  0
LINE
  8
L-1-1
 10
18189.12
 20
7213.02
 11
18188.51
 21
7213.69
  0
LINE
  8
L-1-1
 10
18188.51
 20
7213.69
 11
18188.02
 21
7214.41
  0
LINE
  8
L-1-1
 10
18188.02
 20
7214.41
 11
18187.67
 21
7215.17
  0
LINE
  8
L-1-1
 10
18187.67
 20
7215.17
 11
18187.45
 21
7215.95
  0
LINE
  8
L-1-1
 10
18187.45
 20
7215.95
 11
18187.37
 21
7216.75
  0
LINE
  8
L-1-1
 10
18187.37
 20
7216.75
 11
18187.43
 21
7217.54
  0
LINE
  8
L-1-1
 10
18187.43
 20
7217.54
 11
18187.63
 21
7218.33
  0
LINE
  8
L-1-1
 10
18187.63
 20
7218.33
 11
18187.97
 21
7219.09
  0
LINE
  8
L-1-1
 10
18187.97
 20
7219.09
 11
18188.43
 21
7219.81
  0
LINE
  8
L-1-1
 10
18188.43
 20
7219.81
 11
18189.03
 21
7220.49
  0
LINE
  8
L-1-1
 10
18189.03
 20
7220.49
 11
18189.74
 21
7221.11
  0
LINE
  8
L-1-1
 10
18189.74
 20
7221.11
 11
18190.55
 21
7221.66
  0
LINE
  8
L-1-1
 10
18190.55
 20
7221.66
 11
18191.45
 21
7222.14
  0
LINE
  8
L-1-1
 10
18191.45
 20
7222.14
 11
18192.43
 21
7222.53
  0
LINE
  8
L-1-1
 10
18192.43
 20
7222.53
 11
18193.47
 21
7222.84
  0
LINE
  8
L-1-1
 10
18193.47
 20
7222.84
 11
18194.56
 21
7223.04
  0
LINE
  8
L-1-1
 10
18194.56
 20
7223.04
 11
18195.68
 21
7223.15
  0
LINE
  8
L-1-1
 10
18195.68
 20
7223.15
 11
18196.80
 21
7223.16
  0
LINE
  8
L-1-1
 10
18196.80
 20
7223.16
 11
18197.92
 21
7223.08
  0
LINE
  8
L-1-1
 10
18197.92
 20
7223.08
 11
18199.02
 21
7222.89
  0
LINE
  8
L-1-1
 10
18199.02
 20
7222.89
 11
18200.07
 21
7222.60
  0
LINE
  8
L-1-1
 10
18200.07
 20
7222.60
 11
18201.06
 21
7222.23
  0
LINE
  8
L-1-1
 10
18201.06
 20
7222.23
 11
18201.98
 21
7221.77
  0
LINE
  8
L-1-1
 10
18201.98
 20
7221.77
 11
18202.82
 21
7221.23
  0
LINE
  8
L-1-1
 10
18202.82
 20
7221.23
 11
18203.55
 21
7220.62
  0
LINE
  8
L-1-1
 10
18203.55
 20
7220.62
 11
18204.16
 21
7219.96
  0
LINE
  8
L-1-1
 10
18204.16
 20
7219.96
 11
18204.66
 21
7219.24
  0
LINE
  8
L-1-1
 10
18204.66
 20
7219.24
 11
18205.03
 21
7218.49
  0
LINE
  8
L-1-1
 10
18205.03
 20
7218.49
 11
18205.26
 21
7217.70
  0
LINE
  8
L-1-1
 10
18205.26
 20
7217.70
 11
18205.33
 21
7216.80
  0
LINE
  8
L-1-1
 10
18223.29
 20
7139.32
 11
18223.08
 21
7136.93
  0
LINE
  8
L-1-1
 10
18223.08
 20
7136.93
 11
18222.45
 21
7134.58
  0
LINE
  8
L-1-1
 10
18222.45
 20
7134.58
 11
18221.41
 21
7132.30
  0
LINE
  8
L-1-1
 10
18221.41
 20
7132.30
 11
18219.98
 21
7130.14
  0
LINE
  8
L-1-1
 10
18219.98
 20
7130.14
 11
18218.18
 21
7128.11
  0
LINE
  8
L-1-1
 10
18218.18
 20
7128.11
 11
18216.03
 21
7126.27
  0
LINE
  8
L-1-1
 10
18216.03
 20
7126.27
 11
18213.58
 21
7124.63
  0
LINE
  8
L-1-1
 10
18213.58
 20
7124.63
 11
18210.85
 21
7123.21
  0
LINE
  8
L-1-1
 10
18210.85
 20
7123.21
 11
18207.90
 21
7122.06
  0
LINE
  8
L-1-1
 10
18207.90
 20
7122.06
 11
18204.77
 21
7121.17
  0
LINE
  8
L-1-1
 10
18204.77
 20
7121.17
 11
18201.50
 21
7120.56
  0
LINE
  8
L-1-1
 10
18201.50
 20
7120.56
 11
18198.15
 21
7120.25
  0
LINE
  8
L-1-1
 10
18198.15
 20
7120.25
 11
18194.78
 21
7120.24
  0
LINE
  8
L-1-1
 10
18194.78
 20
7120.24
 11
18191.43
 21
7120.53
  0
LINE
  8
L-1-1
 10
18191.43
 20
7120.53
 11
18188.15
 21
7121.11
  0
LINE
  8
L-1-1
 10
18188.15
 20
7121.11
 11
18185.01
 21
7121.98
  0
LINE
  8
L-1-1
 10
18185.01
 20
7121.98
 11
18182.04
 21
7123.12
  0
LINE
  8
L-1-1
 10
18182.04
 20
7123.12
 11
18179.30
 21
7124.52
  0
LINE
  8
L-1-1
 10
18179.30
 20
7124.52
 11
18176.82
 21
7126.14
  0
LINE
  8
L-1-1
 10
18176.82
 20
7126.14
 11
18174.65
 21
7127.98
  0
LINE
  8
L-1-1
 10
18174.65
 20
7127.98
 11
18172.82
 21
7129.99
  0
LINE
  8
L-1-1
 10
18172.82
 20
7129.99
 11
18171.36
 21
7132.15
  0
LINE
  8
L-1-1
 10
18171.36
 20
7132.15
 11
18170.29
 21
7134.42
  0
LINE
  8
L-1-1
 10
18170.29
 20
7134.42
 11
18169.63
 21
7136.77
  0
LINE
  8
L-1-1
 10
18169.63
 20
7136.77
 11
18169.39
 21
7139.15
  0
LINE
  8
L-1-1
 10
18169.39
 20
7139.15
 11
18169.57
 21
7141.54
  0
LINE
  8
L-1-1
 10
18169.57
 20
7141.54
 11
18170.18
 21
7143.90
  0
LINE
  8
L-1-1
 10
18170.18
 20
7143.90
 11
18171.19
 21
7146.18
  0
LINE
  8
L-1-1
 10
18171.19
 20
7146.18
 11
18172.60
 21
7148.36
  0
LINE
  8
L-1-1
 10
18172.60
 20
7148.36
 11
18174.38
 21
7150.39
  0
LINE
  8
L-1-1
 10
18174.38
 20
7150.39
 11
18176.50
 21
7152.25
  0
LINE
  8
L-1-1
 10
18176.50
 20
7152.25
 11
18178.94
 21
7153.91
  0
LINE
  8
L-1-1
 10
18178.94
 20
7153.91
 11
18181.65
 21
7155.34
  0
LINE
  8
L-1-1
 10
18181.65
 20
7155.34
 11
18184.59
 21
7156.52
  0
LINE
  8
L-1-1
 10
18184.59
 20
7156.52
 11
18187.71
 21
7157.43
  0
LINE
  8
L-1-1
 10
18187.71
 20
7157.43
 11
18190.98
 21
7158.05
  0
LINE
  8
L-1-1
 10
18190.98
 20
7158.05
 11
18194.32
 21
7158.38
  0
LINE
  8
L-1-1
 10
18194.32
 20
7158.38
 11
18197.70
 21
7158.41
  0
LINE
  8
L-1-1
 10
18197.70
 20
7158.41
 11
18201.06
 21
7158.14
  0
LINE
  8
L-1-1
 10
18201.06
 20
7158.14
 11
18204.34
 21
7157.58
  0
LINE
  8
L-1-1
 10
18204.34
 20
7157.58
 11
18207.50
 21
7156.73
  0
LINE
  8
L-1-1
 10
18207.50
 20
7156.73
 11
18210.48
 21
7155.61
  0
LINE
  8
L-1-1
 10
18210.48
 20
7155.61
 11
18213.24
 21
7154.23
  0
LINE
  8
L-1-1
 10
18213.24
 20
7154.23
 11
18215.74
 21
7152.61
  0
LINE
  8
L-1-1
 10
18215.74
 20
7152.61
 11
18217.93
 21
7150.79
  0
LINE
  8
L-1-1
 10
18217.93
 20
7150.79
 11
18219.79
 21
7148.79
  0
LINE
  8
L-1-1
 10
18219.79
 20
7148.79
 11
18221.28
 21
7146.64
  0
LINE
  8
L-1-1
 10
18221.28
 20
7146.64
 11
18222.37
 21
7144.37
  0
LINE
  8
L-1-1
 10
18222.37
 20
7144.37
 11
18223.06
 21
7142.03
  0
LINE
  8
L-1-1
 10
18223.06
 20
7142.03
 11
18223.29
 21
7139.32
  0
LINE
  8
L-1-1
 10
18222.92
 20
7142.49
 11
18222.15
 21
7140.16
  0
LINE
  8
L-1-1
 10
18222.15
 20
7140.16
 11
18220.98
 21
7137.92
  0
LINE
  8
L-1-1
 10
18220.98
 20
7137.92
 11
18219.42
 21
7135.80
  0
LINE
  8
L-1-1
 10
18219.42
 20
7135.80
 11
18217.50
 21
7133.83
  0
LINE
  8
L-1-1
 10
18217.50
 20
7133.83
 11
18215.24
 21
7132.05
  0
LINE
  8
L-1-1
 10
18215.24
 20
7132.05
 11
18212.70
 21
7130.48
  0
LINE
  8
L-1-1
 10
18212.70
 20
7130.48
 11
18209.89
 21
7129.15
  0
LINE
  8
L-1-1
 10
18209.89
 20
7129.15
 11
18206.87
 21
7128.08
  0
LINE
  8
L-1-1
 10
18206.87
 20
7128.08
 11
18203.69
 21
7127.29
  0
LINE
  8
L-1-1
 10
18203.69
 20
7127.29
 11
18200.39
 21
7126.78
  0
LINE
  8
L-1-1
 10
18200.39
 20
7126.78
 11
18197.03
 21
7126.57
  0
LINE
  8
L-1-1
 10
18197.03
 20
7126.57
 11
18193.65
 21
7126.66
  0
LINE
  8
L-1-1
 10
18193.65
 20
7126.66
 11
18190.32
 21
7127.05
  0
LINE
  8
L-1-1
 10
18190.32
 20
7127.05
 11
18187.09
 21
7127.73
  0
LINE
  8
L-1-1
 10
18187.09
 20
7127.73
 11
18184.00
 21
7128.69
  0
LINE
  8
L-1-1
 10
18184.00
 20
7128.69
 11
18181.10
 21
7129.92
  0
LINE
  8
L-1-1
 10
18181.10
 20
7129.92
 11
18178.44
 21
7131.39
  0
LINE
  8
L-1-1
 10
18178.44
 20
7131.39
 11
18176.06
 21
7133.09
  0
LINE
  8
L-1-1
 10
18176.06
 20
7133.09
 11
18174.00
 21
7134.99
  0
LINE
  8
L-1-1
 10
18174.00
 20
7134.99
 11
18172.29
 21
7137.05
  0
LINE
  8
L-1-1
 10
18172.29
 20
7137.05
 11
18170.96
 21
7139.25
  0
LINE
  8
L-1-1
 10
18170.96
 20
7139.25
 11
18170.03
 21
7141.55
  0
LINE
  8
L-1-1
 10
18170.03
 20
7141.55
 11
18169.79
 21
7142.49
  0
LINE
  8
L-1-1
 10
18169.79
 20
7142.49
 11
18222.92
 21
7142.49
  0
LINE
  8
L-1-1
 10
18116.35
 20
6289.32
 11
18125.35
 21
6289.32
  0
LINE
  8
L-1-1
 10
18125.35
 20
6289.32
 11
18125.35
 21
6479.32
  0
LINE
  8
L-1-1
 10
18125.35
 20
6479.32
 11
18116.35
 21
6479.32
  0
LINE
  8
L-1-1
 10
18116.35
 20
6479.32
 11
18116.35
 21
6289.32
  0
LINE
  8
L-1-1
 10
18286.35
 20
6329.32
 11
18286.35
 21
6479.32
  0
LINE
  8
L-1-1
 10
18286.35
 20
6479.32
 11
18295.35
 21
6479.32
  0
LINE
  8
L-1-1
 10
18295.35
 20
6479.32
 11
18295.35
 21
6329.32
  0
LINE
  8
L-1-1
 10
18295.35
 20
6329.32
 11
18286.35
 21
6329.32
  0
LINE
  8
L-1-1
 10
18125.35
 20
6289.32
 11
18145.35
 21
6289.32
  0
LINE
  8
L-1-1
 10
18145.35
 20
6289.32
 11
18286.35
 21
6329.32
  0
LINE
  8
L-1-1
 10
18125.35
 20
6297.32
 11
18144.24
 21
6297.32
  0
LINE
  8
L-1-1
 10
18144.24
 20
6297.32
 11
18286.32
 21
6337.62
  0
LINE
  8
L-1-1
 10
18125.35
 20
6349.32
 11
18145.35
 21
6349.32
  0
LINE
  8
L-1-1
 10
18145.35
 20
6349.32
 11
18286.35
 21
6389.32
  0
LINE
  8
L-1-1
 10
18125.35
 20
6357.32
 11
18144.24
 21
6357.32
  0
LINE
  8
L-1-1
 10
18144.24
 20
6357.32
 11
18286.32
 21
6397.62
  0
LINE
  8
L-1-1
 10
18125.35
 20
6479.32
 11
18176.18
 21
6507.95
  0
ARC
  8
L-1-1
 10
18198.80
 20
6467.80
 40
46.09
 50
66.04
 51
119.40
  0
LINE
  8
L-1-1
 10
18217.52
 20
6509.91
 11
18286.35
 21
6479.32
  0
LINE
  8
L-1-1
 10
18175.51
 20
6357.87
 11
18176.71
 21
6356.07
  0
LINE
  8
L-1-1
 10
18176.71
 20
6356.07
 11
18178.23
 21
6354.39
  0
LINE
  8
L-1-1
 10
18178.23
 20
6354.39
 11
18180.03
 21
6352.86
  0
LINE
  8
L-1-1
 10
18180.03
 20
6352.86
 11
18182.08
 21
6351.50
  0
LINE
  8
L-1-1
 10
18182.08
 20
6351.50
 11
18184.36
 21
6350.33
  0
LINE
  8
L-1-1
 10
18184.36
 20
6350.33
 11
18186.83
 21
6349.37
  0
LINE
  8
L-1-1
 10
18186.83
 20
6349.37
 11
18189.44
 21
6348.64
  0
LINE
  8
L-1-1
 10
18189.44
 20
6348.64
 11
18192.17
 21
6348.14
  0
LINE
  8
L-1-1
 10
18192.17
 20
6348.14
 11
18194.96
 21
6347.89
  0
LINE
  8
L-1-1
 10
18194.96
 20
6347.89
 11
18197.77
 21
6347.90
  0
LINE
  8
L-1-1
 10
18197.77
 20
6347.90
 11
18200.56
 21
6348.14
  0
LINE
  8
L-1-1
 10
18200.56
 20
6348.14
 11
18203.28
 21
6348.64
  0
LINE
  8
L-1-1
 10
18203.28
 20
6348.64
 11
18205.90
 21
6349.37
  0
LINE
  8
L-1-1
 10
18205.90
 20
6349.37
 11
18208.37
 21
6350.33
  0
LINE
  8
L-1-1
 10
18208.37
 20
6350.33
 11
18210.65
 21
6351.50
  0
LINE
  8
L-1-1
 10
18210.65
 20
6351.50
 11
18212.70
 21
6352.86
  0
LINE
  8
L-1-1
 10
18212.70
 20
6352.86
 11
18214.50
 21
6354.40
  0
LINE
  8
L-1-1
 10
18214.50
 20
6354.40
 11
18216.01
 21
6356.08
  0
LINE
  8
L-1-1
 10
18216.01
 20
6356.08
 11
18217.22
 21
6357.88
  0
LINE
  8
L-1-1
 10
18217.22
 20
6357.88
 11
18218.09
 21
6359.78
  0
LINE
  8
L-1-1
 10
18218.09
 20
6359.78
 11
18218.63
 21
6361.73
  0
LINE
  8
L-1-1
 10
18218.63
 20
6361.73
 11
18218.82
 21
6363.72
  0
LINE
  8
L-1-1
 10
18218.82
 20
6363.72
 11
18218.65
 21
6365.71
  0
LINE
  8
L-1-1
 10
18218.65
 20
6365.71
 11
18218.14
 21
6367.68
  0
LINE
  8
L-1-1
 10
18218.14
 20
6367.68
 11
18217.28
 21
6369.58
  0
LINE
  8
L-1-1
 10
18217.28
 20
6369.58
 11
18217.19
 21
6369.70
  0
LINE
  8
L-1-1
 10
18217.19
 20
6369.70
 11
18175.51
 21
6357.87
  0
LINE
  8
L-1-1
 10
18205.33
 20
6401.83
 11
18205.26
 21
6402.63
  0
LINE
  8
L-1-1
 10
18205.26
 20
6402.63
 11
18205.05
 21
6403.41
  0
LINE
  8
L-1-1
 10
18205.05
 20
6403.41
 11
18204.71
 21
6404.17
  0
LINE
  8
L-1-1
 10
18204.71
 20
6404.17
 11
18204.23
 21
6404.89
  0
LINE
  8
L-1-1
 10
18204.23
 20
6404.89
 11
18203.63
 21
6405.57
  0
LINE
  8
L-1-1
 10
18203.63
 20
6405.57
 11
18202.91
 21
6406.18
  0
LINE
  8
L-1-1
 10
18202.91
 20
6406.18
 11
18202.09
 21
6406.73
  0
LINE
  8
L-1-1
 10
18202.09
 20
6406.73
 11
18201.19
 21
6407.20
  0
LINE
  8
L-1-1
 10
18201.19
 20
6407.20
 11
18200.20
 21
6407.59
  0
LINE
  8
L-1-1
 10
18200.20
 20
6407.59
 11
18199.16
 21
6407.88
  0
LINE
  8
L-1-1
 10
18199.16
 20
6407.88
 11
18198.07
 21
6408.08
  0
LINE
  8
L-1-1
 10
18198.07
 20
6408.08
 11
18196.95
 21
6408.19
  0
LINE
  8
L-1-1
 10
18196.95
 20
6408.19
 11
18195.83
 21
6408.19
  0
LINE
  8
L-1-1
 10
18195.83
 20
6408.19
 11
18194.71
 21
6408.09
  0
LINE
  8
L-1-1
 10
18194.71
 20
6408.09
 11
18193.62
 21
6407.90
  0
LINE
  8
L-1-1
 10
18193.62
 20
6407.90
 11
18192.57
 21
6407.61
  0
LINE
  8
L-1-1
 10
18192.57
 20
6407.61
 11
18191.58
 21
6407.23
  0
LINE
  8
L-1-1
 10
18191.58
 20
6407.23
 11
18190.67
 21
6406.76
  0
LINE
  8
L-1-1
 10
18190.67
 20
6406.76
 11
18189.84
 21
6406.22
  0
LINE
  8
L-1-1
 10
18189.84
 20
6406.22
 11
18189.12
 21
6405.61
  0
LINE
  8
L-1-1
 10
18189.12
 20
6405.61
 11
18188.51
 21
6404.94
  0
LINE
  8
L-1-1
 10
18188.51
 20
6404.94
 11
18188.02
 21
6404.22
  0
LINE
  8
L-1-1
 10
18188.02
 20
6404.22
 11
18187.67
 21
6403.46
  0
LINE
  8
L-1-1
 10
18187.67
 20
6403.46
 11
18187.45
 21
6402.68
  0
LINE
  8
L-1-1
 10
18187.45
 20
6402.68
 11
18187.37
 21
6401.89
  0
LINE
  8
L-1-1
 10
18187.37
 20
6401.89
 11
18187.43
 21
6401.09
  0
LINE
  8
L-1-1
 10
18187.43
 20
6401.09
 11
18187.63
 21
6400.30
  0
LINE
  8
L-1-1
 10
18187.63
 20
6400.30
 11
18187.97
 21
6399.54
  0
LINE
  8
L-1-1
 10
18187.97
 20
6399.54
 11
18188.43
 21
6398.82
  0
LINE
  8
L-1-1
 10
18188.43
 20
6398.82
 11
18189.03
 21
6398.14
  0
LINE
  8
L-1-1
 10
18189.03
 20
6398.14
 11
18189.74
 21
6397.52
  0
LINE
  8
L-1-1
 10
18189.74
 20
6397.52
 11
18190.55
 21
6396.97
  0
LINE
  8
L-1-1
 10
18190.55
 20
6396.97
 11
18191.45
 21
6396.49
  0
LINE
  8
L-1-1
 10
18191.45
 20
6396.49
 11
18192.43
 21
6396.10
  0
LINE
  8
L-1-1
 10
18192.43
 20
6396.10
 11
18193.47
 21
6395.80
  0
LINE
  8
L-1-1
 10
18193.47
 20
6395.80
 11
18194.56
 21
6395.59
  0
LINE
  8
L-1-1
 10
18194.56
 20
6395.59
 11
18195.68
 21
6395.48
  0
LINE
  8
L-1-1
 10
18195.68
 20
6395.48
 11
18196.80
 21
6395.47
  0
LINE
  8
L-1-1
 10
18196.80
 20
6395.47
 11
18197.92
 21
6395.56
  0
LINE
  8
L-1-1
 10
18197.92
 20
6395.56
 11
18199.02
 21
6395.74
  0
LINE
  8
L-1-1
 10
18199.02
 20
6395.74
 11
18200.07
 21
6396.03
  0
LINE
  8
L-1-1
 10
18200.07
 20
6396.03
 11
18201.06
 21
6396.40
  0
LINE
  8
L-1-1
 10
18201.06
 20
6396.40
 11
18201.98
 21
6396.86
  0
LINE
  8
L-1-1
 10
18201.98
 20
6396.86
 11
18202.82
 21
6397.40
  0
LINE
  8
L-1-1
 10
18202.82
 20
6397.40
 11
18203.55
 21
6398.01
  0
LINE
  8
L-1-1
 10
18203.55
 20
6398.01
 11
18204.16
 21
6398.67
  0
LINE
  8
L-1-1
 10
18204.16
 20
6398.67
 11
18204.66
 21
6399.39
  0
LINE
  8
L-1-1
 10
18204.66
 20
6399.39
 11
18205.03
 21
6400.15
  0
LINE
  8
L-1-1
 10
18205.03
 20
6400.15
 11
18205.26
 21
6400.93
  0
LINE
  8
L-1-1
 10
18205.26
 20
6400.93
 11
18205.33
 21
6401.83
  0
LINE
  8
L-1-1
 10
18223.29
 20
6479.32
 11
18223.08
 21
6481.70
  0
LINE
  8
L-1-1
 10
18223.08
 20
6481.70
 11
18222.45
 21
6484.05
  0
LINE
  8
L-1-1
 10
18222.45
 20
6484.05
 11
18221.41
 21
6486.33
  0
LINE
  8
L-1-1
 10
18221.41
 20
6486.33
 11
18219.98
 21
6488.49
  0
LINE
  8
L-1-1
 10
18219.98
 20
6488.49
 11
18218.18
 21
6490.52
  0
LINE
  8
L-1-1
 10
18218.18
 20
6490.52
 11
18216.03
 21
6492.36
  0
LINE
  8
L-1-1
 10
18216.03
 20
6492.36
 11
18213.58
 21
6494.00
  0
LINE
  8
L-1-1
 10
18213.58
 20
6494.00
 11
18210.85
 21
6495.42
  0
LINE
  8
L-1-1
 10
18210.85
 20
6495.42
 11
18207.90
 21
6496.58
  0
LINE
  8
L-1-1
 10
18207.90
 20
6496.58
 11
18204.77
 21
6497.46
  0
LINE
  8
L-1-1
 10
18204.77
 20
6497.46
 11
18201.50
 21
6498.07
  0
LINE
  8
L-1-1
 10
18201.50
 20
6498.07
 11
18198.15
 21
6498.38
  0
LINE
  8
L-1-1
 10
18198.15
 20
6498.38
 11
18194.78
 21
6498.39
  0
LINE
  8
L-1-1
 10
18194.78
 20
6498.39
 11
18191.43
 21
6498.10
  0
LINE
  8
L-1-1
 10
18191.43
 20
6498.10
 11
18188.15
 21
6497.52
  0
LINE
  8
L-1-1
 10
18188.15
 20
6497.52
 11
18185.01
 21
6496.65
  0
LINE
  8
L-1-1
 10
18185.01
 20
6496.65
 11
18182.04
 21
6495.51
  0
LINE
  8
L-1-1
 10
18182.04
 20
6495.51
 11
18179.30
 21
6494.11
  0
LINE
  8
L-1-1
 10
18179.30
 20
6494.11
 11
18176.82
 21
6492.49
  0
LINE
  8
L-1-1
 10
18176.82
 20
6492.49
 11
18174.65
 21
6490.65
  0
LINE
  8
L-1-1
 10
18174.65
 20
6490.65
 11
18172.82
 21
6488.64
  0
LINE
  8
L-1-1
 10
18172.82
 20
6488.64
 11
18171.36
 21
6486.48
  0
LINE
  8
L-1-1
 10
18171.36
 20
6486.48
 11
18170.29
 21
6484.21
  0
LINE
  8
L-1-1
 10
18170.29
 20
6484.21
 11
18169.63
 21
6481.87
  0
LINE
  8
L-1-1
 10
18169.63
 20
6481.87
 11
18169.39
 21
6479.48
  0
LINE
  8
L-1-1
 10
18169.39
 20
6479.48
 11
18169.57
 21
6477.09
  0
LINE
  8
L-1-1
 10
18169.57
 20
6477.09
 11
18170.18
 21
6474.73
  0
LINE
  8
L-1-1
 10
18170.18
 20
6474.73
 11
18171.19
 21
6472.45
  0
LINE
  8
L-1-1
 10
18171.19
 20
6472.45
 11
18172.60
 21
6470.27
  0
LINE
  8
L-1-1
 10
18172.60
 20
6470.27
 11
18174.38
 21
6468.24
  0
LINE
  8
L-1-1
 10
18174.38
 20
6468.24
 11
18176.50
 21
6466.38
  0
LINE
  8
L-1-1
 10
18176.50
 20
6466.38
 11
18178.94
 21
6464.72
  0
LINE
  8
L-1-1
 10
18178.94
 20
6464.72
 11
18181.65
 21
6463.29
  0
LINE
  8
L-1-1
 10
18181.65
 20
6463.29
 11
18184.59
 21
6462.11
  0
LINE
  8
L-1-1
 10
18184.59
 20
6462.11
 11
18187.71
 21
6461.20
  0
LINE
  8
L-1-1
 10
18187.71
 20
6461.20
 11
18190.98
 21
6460.58
  0
LINE
  8
L-1-1
 10
18190.98
 20
6460.58
 11
18194.32
 21
6460.25
  0
LINE
  8
L-1-1
 10
18194.32
 20
6460.25
 11
18197.70
 21
6460.22
  0
LINE
  8
L-1-1
 10
18197.70
 20
6460.22
 11
18201.06
 21
6460.49
  0
LINE
  8
L-1-1
 10
18201.06
 20
6460.49
 11
18204.34
 21
6461.05
  0
LINE
  8
L-1-1
 10
18204.34
 20
6461.05
 11
18207.50
 21
6461.90
  0
LINE
  8
L-1-1
 10
18207.50
 20
6461.90
 11
18210.48
 21
6463.03
  0
LINE
  8
L-1-1
 10
18210.48
 20
6463.03
 11
18213.24
 21
6464.40
  0
LINE
  8
L-1-1
 10
18213.24
 20
6464.40
 11
18215.74
 21
6466.02
  0
LINE
  8
L-1-1
 10
18215.74
 20
6466.02
 11
18217.93
 21
6467.84
  0
LINE
  8
L-1-1
 10
18217.93
 20
6467.84
 11
18219.79
 21
6469.84
  0
LINE
  8
L-1-1
 10
18219.79
 20
6469.84
 11
18221.28
 21
6471.99
  0
LINE
  8
L-1-1
 10
18221.28
 20
6471.99
 11
18222.37
 21
6474.26
  0
LINE
  8
L-1-1
 10
18222.37
 20
6474.26
 11
18223.06
 21
6476.60
  0
LINE
  8
L-1-1
 10
18223.06
 20
6476.60
 11
18223.29
 21
6479.32
  0
LINE
  8
L-1-1
 10
18222.92
 20
6476.14
 11
18222.15
 21
6478.47
  0
LINE
  8
L-1-1
 10
18222.15
 20
6478.47
 11
18220.98
 21
6480.71
  0
LINE
  8
L-1-1
 10
18220.98
 20
6480.71
 11
18219.42
 21
6482.83
  0
LINE
  8
L-1-1
 10
18219.42
 20
6482.83
 11
18217.50
 21
6484.80
  0
LINE
  8
L-1-1
 10
18217.50
 20
6484.80
 11
18215.24
 21
6486.58
  0
LINE
  8
L-1-1
 10
18215.24
 20
6486.58
 11
18212.70
 21
6488.15
  0
LINE
  8
L-1-1
 10
18212.70
 20
6488.15
 11
18209.89
 21
6489.48
  0
LINE
  8
L-1-1
 10
18209.89
 20
6489.48
 11
18206.87
 21
6490.55
  0
LINE
  8
L-1-1
 10
18206.87
 20
6490.55
 11
18203.69
 21
6491.34
  0
LINE
  8
L-1-1
 10
18203.69
 20
6491.34
 11
18200.39
 21
6491.85
  0
LINE
  8
L-1-1
 10
18200.39
 20
6491.85
 11
18197.03
 21
6492.06
  0
LINE
  8
L-1-1
 10
18197.03
 20
6492.06
 11
18193.66
 21
6491.97
  0
LINE
  8
L-1-1
 10
18193.66
 20
6491.97
 11
18190.32
 21
6491.58
  0
LINE
  8
L-1-1
 10
18190.32
 20
6491.58
 11
18187.09
 21
6490.90
  0
LINE
  8
L-1-1
 10
18187.09
 20
6490.90
 11
18184.00
 21
6489.94
  0
LINE
  8
L-1-1
 10
18184.00
 20
6489.94
 11
18181.10
 21
6488.71
  0
LINE
  8
L-1-1
 10
18181.10
 20
6488.71
 11
18178.44
 21
6487.24
  0
LINE
  8
L-1-1
 10
18178.44
 20
6487.24
 11
18176.06
 21
6485.54
  0
LINE
  8
L-1-1
 10
18176.06
 20
6485.54
 11
18174.00
 21
6483.64
  0
LINE
  8
L-1-1
 10
18174.00
 20
6483.64
 11
18172.29
 21
6481.58
  0
LINE
  8
L-1-1
 10
18172.29
 20
6481.58
 11
18170.96
 21
6479.38
  0
LINE
  8
L-1-1
 10
18170.96
 20
6479.38
 11
18170.03
 21
6477.08
  0
LINE
  8
L-1-1
 10
18170.03
 20
6477.08
 11
18169.79
 21
6476.14
  0
LINE
  8
L-1-1
 10
18169.79
 20
6476.14
 11
18222.92
 21
6476.14
  0
LINE
  8
L-1-1
 10
16031.35
 20
6974.32
 11
17006.35
 21
6360.94
  0
LINE
  8
L-1-1
 10
16971.74
 20
6305.92
 11
17006.35
 21
6360.94
  0
LINE
  8
L-1-1
 10
16031.35
 20
6974.32
 11
15966.35
 21
6974.32
  0
LINE
  8
L-1-1
 10
16031.35
 20
6974.32
 11
17006.35
 21
7587.70
  0
LINE
  8
L-1-1
 10
16971.74
 20
7642.71
 11
17006.35
 21
7587.70
  0
LINE
  8
L-1-1
 10
15966.35
 20
6938.41
 11
16971.74
 21
6305.92
  0
LINE
  8
L-1-1
 10
15966.35
 20
7010.22
 11
16971.74
 21
7642.71
  0
LINE
  8
L-1-1
 10
15966.35
 20
6974.32
 11
14991.35
 21
6352.80
  0
LINE
  8
L-1-1
 10
15026.29
 20
6297.99
 11
14991.35
 21
6352.80
  0
LINE
  8
L-1-1
 10
15966.35
 20
6897.23
 11
15026.29
 21
6297.99
  0
LINE
  8
L-1-1
 10
14899.37
 20
7323.61
 11
14882.76
 21
7260.77
  0
LINE
  8
L-1-1
 10
15966.35
 20
6974.32
 11
14882.76
 21
7260.77
  0
LINE
  8
L-1-1
 10
15966.63
 20
7041.47
 11
14899.37
 21
7323.61
  0
LINE
  8
L-1-1
 10
17088.21
 20
6359.98
 11
17981.58
 21
7341.39
  0
LINE
  8
L-1-1
 10
17136.28
 20
6316.23
 11
18029.65
 21
7297.63
  0
LINE
  8
L-1-1
 10
18029.65
 20
7297.63
 11
17981.58
 21
7341.39
  0
LINE
  8
L-1-1
 10
17088.21
 20
6359.98
 11
17136.28
 21
6316.23
  0
LINE
  8
L-1-1
 10
14562.87
 20
7562.32
 11
14673.35
 21
7562.32
  0
LINE
  8
L-1-1
 10
14673.35
 20
7412.32
 11
14673.35
 21
7562.32
  0
LINE
  8
L-1-1
 10
14664.35
 20
7412.32
 11
14664.35
 21
7562.32
  0
LINE
  8
L-1-1
 10
14673.35
 20
7412.32
 11
14664.35
 21
7412.32
  0
LINE
  8
L-1-1
 10
14562.87
 20
7553.32
 11
14664.35
 21
7553.32
  0
LINE
  8
L-1-1
 10
14744.35
 20
7324.32
 11
14564.35
 21
7324.32
  0
LINE
  8
L-1-1
 10
14744.35
 20
7314.32
 11
14564.35
 21
7314.32
  0
LINE
  8
L-1-1
 10
14744.35
 20
7274.32
 11
14564.35
 21
7274.32
  0
LINE
  8
L-1-1
 10
14744.35
 20
7254.32
 11
14564.35
 21
7254.32
  0
LINE
  8
L-1-1
 10
14563.91
 20
7453.32
 11
14664.35
 21
7453.32
  0
LINE
  8
L-1-1
 10
14766.35
 20
7379.32
 11
14744.35
 21
7379.32
  0
LINE
  8
L-1-1
 10
14766.35
 20
7379.32
 11
14766.35
 21
7229.32
  0
LINE
  8
L-1-1
 10
14766.35
 20
7229.32
 11
14744.35
 21
7229.32
  0
LINE
  8
L-1-1
 10
14744.35
 20
7229.32
 11
14744.35
 21
7379.32
  0
LINE
  8
L-1-1
 10
14744.35
 20
7379.32
 11
14766.35
 21
7379.32
  0
LINE
  8
L-1-1
 10
14529.35
 20
7344.82
 11
14519.35
 21
7344.82
  0
LINE
  8
L-1-1
 10
14361.85
 20
7294.82
 11
14369.35
 21
7294.82
  0
LINE
  8
L-1-1
 10
14369.35
 20
7294.82
 11
14519.35
 21
7344.82
  0
LINE
  8
L-1-1
 10
14361.85
 20
7294.82
 11
14361.85
 21
7174.82
  0
LINE
  8
L-1-1
 10
14361.85
 20
7174.82
 11
14369.35
 21
7174.82
  0
LINE
  8
L-1-1
 10
14369.35
 20
7174.82
 11
14369.35
 21
7294.82
  0
LINE
  8
L-1-1
 10
14369.35
 20
7294.82
 11
14361.85
 21
7294.82
  0
LINE
  8
L-1-1
 10
14369.35
 20
7182.32
 11
14361.85
 21
7182.32
  0
LINE
  8
L-1-1
 10
14369.35
 20
7254.82
 11
14361.85
 21
7254.82
  0
LINE
  8
L-1-1
 10
14429.35
 20
7274.82
 11
14429.51
 21
7272.94
  0
LINE
  8
L-1-1
 10
14429.51
 20
7272.94
 11
14429.98
 21
7271.09
  0
LINE
  8
L-1-1
 10
14429.98
 20
7271.09
 11
14430.75
 21
7269.31
  0
LINE
  8
L-1-1
 10
14430.75
 20
7269.31
 11
14431.81
 21
7267.61
  0
LINE
  8
L-1-1
 10
14431.81
 20
7267.61
 11
14433.15
 21
7266.02
  0
LINE
  8
L-1-1
 10
14433.15
 20
7266.02
 11
14434.74
 21
7264.57
  0
LINE
  8
L-1-1
 10
14434.74
 20
7264.57
 11
14436.57
 21
7263.28
  0
LINE
  8
L-1-1
 10
14436.57
 20
7263.28
 11
14438.59
 21
7262.17
  0
LINE
  8
L-1-1
 10
14438.59
 20
7262.17
 11
14440.78
 21
7261.26
  0
LINE
  8
L-1-1
 10
14440.78
 20
7261.26
 11
14443.11
 21
7260.56
  0
LINE
  8
L-1-1
 10
14443.11
 20
7260.56
 11
14445.53
 21
7260.09
  0
LINE
  8
L-1-1
 10
14445.53
 20
7260.09
 11
14448.02
 21
7259.84
  0
LINE
  8
L-1-1
 10
14448.02
 20
7259.84
 11
14450.52
 21
7259.84
  0
LINE
  8
L-1-1
 10
14450.52
 20
7259.84
 11
14453.01
 21
7260.06
  0
LINE
  8
L-1-1
 10
14453.01
 20
7260.06
 11
14455.44
 21
7260.52
  0
LINE
  8
L-1-1
 10
14455.44
 20
7260.52
 11
14457.77
 21
7261.20
  0
LINE
  8
L-1-1
 10
14457.77
 20
7261.20
 11
14459.98
 21
7262.10
  0
LINE
  8
L-1-1
 10
14459.98
 20
7262.10
 11
14462.01
 21
7263.19
  0
LINE
  8
L-1-1
 10
14462.01
 20
7263.19
 11
14463.85
 21
7264.47
  0
LINE
  8
L-1-1
 10
14463.85
 20
7264.47
 11
14465.46
 21
7265.91
  0
LINE
  8
L-1-1
 10
14465.46
 20
7265.91
 11
14466.82
 21
7267.49
  0
LINE
  8
L-1-1
 10
14466.82
 20
7267.49
 11
14467.91
 21
7269.19
  0
LINE
  8
L-1-1
 10
14467.91
 20
7269.19
 11
14468.70
 21
7270.97
  0
LINE
  8
L-1-1
 10
14468.70
 20
7270.97
 11
14469.19
 21
7272.81
  0
LINE
  8
L-1-1
 10
14469.19
 20
7272.81
 11
14469.37
 21
7274.69
  0
LINE
  8
L-1-1
 10
14469.37
 20
7274.69
 11
14469.23
 21
7276.57
  0
LINE
  8
L-1-1
 10
14469.23
 20
7276.57
 11
14468.79
 21
7278.42
  0
LINE
  8
L-1-1
 10
14468.79
 20
7278.42
 11
14468.03
 21
7280.21
  0
LINE
  8
L-1-1
 10
14468.03
 20
7280.21
 11
14466.99
 21
7281.92
  0
LINE
  8
L-1-1
 10
14466.99
 20
7281.92
 11
14465.67
 21
7283.52
  0
LINE
  8
L-1-1
 10
14465.67
 20
7283.52
 11
14464.09
 21
7284.98
  0
LINE
  8
L-1-1
 10
14464.09
 20
7284.98
 11
14462.28
 21
7286.28
  0
LINE
  8
L-1-1
 10
14462.28
 20
7286.28
 11
14460.27
 21
7287.40
  0
LINE
  8
L-1-1
 10
14460.27
 20
7287.40
 11
14458.09
 21
7288.33
  0
LINE
  8
L-1-1
 10
14458.09
 20
7288.33
 11
14455.77
 21
7289.04
  0
LINE
  8
L-1-1
 10
14455.77
 20
7289.04
 11
14453.35
 21
7289.53
  0
LINE
  8
L-1-1
 10
14453.35
 20
7289.53
 11
14450.86
 21
7289.79
  0
LINE
  8
L-1-1
 10
14450.86
 20
7289.79
 11
14448.35
 21
7289.81
  0
LINE
  8
L-1-1
 10
14448.35
 20
7289.81
 11
14445.86
 21
7289.60
  0
LINE
  8
L-1-1
 10
14445.86
 20
7289.60
 11
14443.42
 21
7289.16
  0
LINE
  8
L-1-1
 10
14443.42
 20
7289.16
 11
14441.08
 21
7288.49
  0
LINE
  8
L-1-1
 10
14441.08
 20
7288.49
 11
14438.87
 21
7287.61
  0
LINE
  8
L-1-1
 10
14438.87
 20
7287.61
 11
14436.81
 21
7286.53
  0
LINE
  8
L-1-1
 10
14436.81
 20
7286.53
 11
14434.96
 21
7285.26
  0
LINE
  8
L-1-1
 10
14434.96
 20
7285.26
 11
14433.33
 21
7283.83
  0
LINE
  8
L-1-1
 10
14433.33
 20
7283.83
 11
14431.96
 21
7282.26
  0
LINE
  8
L-1-1
 10
14431.96
 20
7282.26
 11
14430.85
 21
7280.57
  0
LINE
  8
L-1-1
 10
14430.85
 20
7280.57
 11
14430.04
 21
7278.79
  0
LINE
  8
L-1-1
 10
14430.04
 20
7278.79
 11
14429.53
 21
7276.95
  0
LINE
  8
L-1-1
 10
14429.53
 20
7276.95
 11
14429.35
 21
7274.82
  0
LINE
  8
L-1-1
 10
14529.35
 20
7274.82
 11
14470.06
 21
7241.47
  0
ARC
  8
L-1-1
 10
14443.09
 20
7289.43
 40
55.03
 50
252.65
 51
299.36
  0
LINE
  8
L-1-1
 10
14426.67
 20
7236.90
 11
14369.35
 21
7254.82
  0
ARC
  8
L-1-1
 10
14443.08
 20
7289.43
 40
62.53
 50
252.65
 51
299.36
  0
LINE
  8
L-1-1
 10
14529.35
 20
7266.21
 11
14473.74
 21
7234.93
  0
LINE
  8
L-1-1
 10
14424.44
 20
7229.74
 11
14369.35
 21
7246.96
  0
LINE
  8
L-1-1
 10
14429.35
 20
7202.67
 11
14429.51
 21
7200.80
  0
LINE
  8
L-1-1
 10
14429.51
 20
7200.80
 11
14429.98
 21
7198.95
  0
LINE
  8
L-1-1
 10
14429.98
 20
7198.95
 11
14430.75
 21
7197.17
  0
LINE
  8
L-1-1
 10
14430.75
 20
7197.17
 11
14431.81
 21
7195.46
  0
LINE
  8
L-1-1
 10
14431.81
 20
7195.46
 11
14433.15
 21
7193.88
  0
LINE
  8
L-1-1
 10
14433.15
 20
7193.88
 11
14434.74
 21
7192.43
  0
LINE
  8
L-1-1
 10
14434.74
 20
7192.43
 11
14436.57
 21
7191.14
  0
LINE
  8
L-1-1
 10
14436.57
 20
7191.14
 11
14438.59
 21
7190.03
  0
LINE
  8
L-1-1
 10
14438.59
 20
7190.03
 11
14440.78
 21
7189.12
  0
LINE
  8
L-1-1
 10
14440.78
 20
7189.12
 11
14443.11
 21
7188.42
  0
LINE
  8
L-1-1
 10
14443.11
 20
7188.42
 11
14445.53
 21
7187.94
  0
LINE
  8
L-1-1
 10
14445.53
 20
7187.94
 11
14448.02
 21
7187.70
  0
LINE
  8
L-1-1
 10
14448.02
 20
7187.70
 11
14450.52
 21
7187.69
  0
LINE
  8
L-1-1
 10
14450.52
 20
7187.69
 11
14453.01
 21
7187.92
  0
LINE
  8
L-1-1
 10
14453.01
 20
7187.92
 11
14455.44
 21
7188.38
  0
LINE
  8
L-1-1
 10
14455.44
 20
7188.38
 11
14457.77
 21
7189.06
  0
LINE
  8
L-1-1
 10
14457.77
 20
7189.06
 11
14459.98
 21
7189.96
  0
LINE
  8
L-1-1
 10
14459.98
 20
7189.96
 11
14462.01
 21
7191.05
  0
LINE
  8
L-1-1
 10
14462.01
 20
7191.05
 11
14463.85
 21
7192.33
  0
LINE
  8
L-1-1
 10
14463.85
 20
7192.33
 11
14465.46
 21
7193.77
  0
LINE
  8
L-1-1
 10
14465.46
 20
7193.77
 11
14466.82
 21
7195.35
  0
LINE
  8
L-1-1
 10
14466.82
 20
7195.35
 11
14467.91
 21
7197.04
  0
LINE
  8
L-1-1
 10
14467.91
 20
7197.04
 11
14468.70
 21
7198.83
  0
LINE
  8
L-1-1
 10
14468.70
 20
7198.83
 11
14469.19
 21
7200.67
  0
LINE
  8
L-1-1
 10
14469.19
 20
7200.67
 11
14469.37
 21
7202.55
  0
LINE
  8
L-1-1
 10
14469.37
 20
7202.55
 11
14469.23
 21
7204.42
  0
LINE
  8
L-1-1
 10
14469.23
 20
7204.42
 11
14468.79
 21
7206.27
  0
LINE
  8
L-1-1
 10
14468.79
 20
7206.27
 11
14468.03
 21
7208.07
  0
LINE
  8
L-1-1
 10
14468.03
 20
7208.07
 11
14466.99
 21
7209.78
  0
LINE
  8
L-1-1
 10
14466.99
 20
7209.78
 11
14465.67
 21
7211.37
  0
LINE
  8
L-1-1
 10
14465.67
 20
7211.37
 11
14464.09
 21
7212.84
  0
LINE
  8
L-1-1
 10
14464.09
 20
7212.84
 11
14462.28
 21
7214.14
  0
LINE
  8
L-1-1
 10
14462.28
 20
7214.14
 11
14460.27
 21
7215.26
  0
LINE
  8
L-1-1
 10
14460.27
 20
7215.26
 11
14458.09
 21
7216.19
  0
LINE
  8
L-1-1
 10
14458.09
 20
7216.19
 11
14455.77
 21
7216.90
  0
LINE
  8
L-1-1
 10
14455.77
 20
7216.90
 11
14453.35
 21
7217.39
  0
LINE
  8
L-1-1
 10
14453.35
 20
7217.39
 11
14450.86
 21
7217.65
  0
LINE
  8
L-1-1
 10
14450.86
 20
7217.65
 11
14448.35
 21
7217.67
  0
LINE
  8
L-1-1
 10
14448.35
 20
7217.67
 11
14445.86
 21
7217.46
  0
LINE
  8
L-1-1
 10
14445.86
 20
7217.46
 11
14443.42
 21
7217.02
  0
LINE
  8
L-1-1
 10
14443.42
 20
7217.02
 11
14441.08
 21
7216.35
  0
LINE
  8
L-1-1
 10
14441.08
 20
7216.35
 11
14438.87
 21
7215.47
  0
LINE
  8
L-1-1
 10
14438.87
 20
7215.47
 11
14436.81
 21
7214.38
  0
LINE
  8
L-1-1
 10
14436.81
 20
7214.38
 11
14434.96
 21
7213.12
  0
LINE
  8
L-1-1
 10
14434.96
 20
7213.12
 11
14433.33
 21
7211.69
  0
LINE
  8
L-1-1
 10
14433.33
 20
7211.69
 11
14431.96
 21
7210.11
  0
LINE
  8
L-1-1
 10
14431.96
 20
7210.11
 11
14430.85
 21
7208.43
  0
LINE
  8
L-1-1
 10
14430.85
 20
7208.43
 11
14430.04
 21
7206.65
  0
LINE
  8
L-1-1
 10
14430.04
 20
7206.65
 11
14429.53
 21
7204.80
  0
LINE
  8
L-1-1
 10
14429.53
 20
7204.80
 11
14429.35
 21
7202.67
  0
LINE
  8
L-1-1
 10
14529.35
 20
7202.67
 11
14470.06
 21
7169.32
  0
ARC
  8
L-1-1
 10
14443.09
 20
7217.28
 40
55.03
 50
252.65
 51
299.36
  0
LINE
  8
L-1-1
 10
14426.67
 20
7164.76
 11
14369.35
 21
7182.67
  0
ARC
  8
L-1-1
 10
14443.09
 20
7217.28
 40
62.53
 50
252.65
 51
299.36
  0
LINE
  8
L-1-1
 10
14529.35
 20
7194.07
 11
14473.74
 21
7162.79
  0
LINE
  8
L-1-1
 10
14424.44
 20
7157.60
 11
14369.35
 21
7174.82
  0
LINE
  8
L-1-1
 10
14369.35
 20
7222.67
 11
14406.95
 21
7235.21
  0
LINE
  8
L-1-1
 10
14669.35
 20
7254.32
 11
14669.35
 21
6806.82
  0
LINE
  8
L-1-1
 10
14661.85
 20
7254.32
 11
14661.85
 21
6806.82
  0
LINE
  8
L-1-1
 10
14562.87
 20
6051.32
 11
14673.35
 21
6051.32
  0
LINE
  8
L-1-1
 10
14673.35
 20
6201.32
 11
14673.35
 21
6051.32
  0
LINE
  8
L-1-1
 10
14664.35
 20
6201.32
 11
14664.35
 21
6051.32
  0
LINE
  8
L-1-1
 10
14673.35
 20
6201.32
 11
14664.35
 21
6201.32
  0
LINE
  8
L-1-1
 10
14562.87
 20
6060.32
 11
14664.35
 21
6060.32
  0
LINE
  8
L-1-1
 10
14744.35
 20
6289.32
 11
14564.35
 21
6289.32
  0
LINE
  8
L-1-1
 10
14744.35
 20
6299.32
 11
14564.35
 21
6299.32
  0
LINE
  8
L-1-1
 10
14744.35
 20
6339.32
 11
14564.35
 21
6339.32
  0
LINE
  8
L-1-1
 10
14744.35
 20
6359.32
 11
14564.35
 21
6359.32
  0
LINE
  8
L-1-1
 10
14563.91
 20
6160.32
 11
14664.35
 21
6160.32
  0
LINE
  8
L-1-1
 10
14766.35
 20
6234.32
 11
14744.35
 21
6234.32
  0
LINE
  8
L-1-1
 10
14766.35
 20
6234.32
 11
14766.35
 21
6384.32
  0
LINE
  8
L-1-1
 10
14766.35
 20
6384.32
 11
14744.35
 21
6384.32
  0
LINE
  8
L-1-1
 10
14744.35
 20
6384.32
 11
14744.35
 21
6234.32
  0
LINE
  8
L-1-1
 10
14744.35
 20
6234.32
 11
14766.35
 21
6234.32
  0
LINE
  8
L-1-1
 10
14361.85
 20
6318.82
 11
14369.35
 21
6318.82
  0
LINE
  8
L-1-1
 10
14369.35
 20
6318.82
 11
14519.35
 21
6268.82
  0
LINE
  8
L-1-1
 10
14361.85
 20
6318.82
 11
14361.85
 21
6438.82
  0
LINE
  8
L-1-1
 10
14361.85
 20
6438.82
 11
14369.35
 21
6438.82
  0
LINE
  8
L-1-1
 10
14369.35
 20
6438.82
 11
14369.35
 21
6318.82
  0
LINE
  8
L-1-1
 10
14369.35
 20
6318.82
 11
14361.85
 21
6318.82
  0
LINE
  8
L-1-1
 10
14369.35
 20
6431.32
 11
14361.85
 21
6431.32
  0
LINE
  8
L-1-1
 10
14369.35
 20
6358.82
 11
14361.85
 21
6358.82
  0
LINE
  8
L-1-1
 10
14429.35
 20
6338.82
 11
14429.51
 21
6340.69
  0
LINE
  8
L-1-1
 10
14429.51
 20
6340.69
 11
14429.98
 21
6342.54
  0
LINE
  8
L-1-1
 10
14429.98
 20
6342.54
 11
14430.75
 21
6344.32
  0
LINE
  8
L-1-1
 10
14430.75
 20
6344.32
 11
14431.81
 21
6346.02
  0
LINE
  8
L-1-1
 10
14431.81
 20
6346.02
 11
14433.15
 21
6347.61
  0
LINE
  8
L-1-1
 10
14433.15
 20
6347.61
 11
14434.74
 21
6349.06
  0
LINE
  8
L-1-1
 10
14434.74
 20
6349.06
 11
14436.57
 21
6350.35
  0
LINE
  8
L-1-1
 10
14436.57
 20
6350.35
 11
14438.59
 21
6351.46
  0
LINE
  8
L-1-1
 10
14438.59
 20
6351.46
 11
14440.78
 21
6352.37
  0
LINE
  8
L-1-1
 10
14440.78
 20
6352.37
 11
14443.11
 21
6353.07
  0
LINE
  8
L-1-1
 10
14443.11
 20
6353.07
 11
14445.53
 21
6353.54
  0
LINE
  8
L-1-1
 10
14445.53
 20
6353.54
 11
14448.02
 21
6353.79
  0
LINE
  8
L-1-1
 10
14448.02
 20
6353.79
 11
14450.52
 21
6353.80
  0
LINE
  8
L-1-1
 10
14450.52
 20
6353.80
 11
14453.01
 21
6353.57
  0
LINE
  8
L-1-1
 10
14453.01
 20
6353.57
 11
14455.44
 21
6353.11
  0
LINE
  8
L-1-1
 10
14455.44
 20
6353.11
 11
14457.77
 21
6352.43
  0
LINE
  8
L-1-1
 10
14457.77
 20
6352.43
 11
14459.98
 21
6351.53
  0
LINE
  8
L-1-1
 10
14459.98
 20
6351.53
 11
14462.01
 21
6350.44
  0
LINE
  8
L-1-1
 10
14462.01
 20
6350.44
 11
14463.85
 21
6349.16
  0
LINE
  8
L-1-1
 10
14463.85
 20
6349.16
 11
14465.46
 21
6347.72
  0
LINE
  8
L-1-1
 10
14465.46
 20
6347.72
 11
14466.82
 21
6346.14
  0
LINE
  8
L-1-1
 10
14466.82
 20
6346.14
 11
14467.91
 21
6344.45
  0
LINE
  8
L-1-1
 10
14467.91
 20
6344.45
 11
14468.70
 21
6342.66
  0
LINE
  8
L-1-1
 10
14468.70
 20
6342.66
 11
14469.19
 21
6340.82
  0
LINE
  8
L-1-1
 10
14469.19
 20
6340.82
 11
14469.37
 21
6338.94
  0
LINE
  8
L-1-1
 10
14469.37
 20
6338.94
 11
14469.23
 21
6337.07
  0
LINE
  8
L-1-1
 10
14469.23
 20
6337.07
 11
14468.79
 21
6335.22
  0
LINE
  8
L-1-1
 10
14468.79
 20
6335.22
 11
14468.03
 21
6333.42
  0
LINE
  8
L-1-1
 10
14468.03
 20
6333.42
 11
14466.99
 21
6331.71
  0
LINE
  8
L-1-1
 10
14466.99
 20
6331.71
 11
14465.67
 21
6330.11
  0
LINE
  8
L-1-1
 10
14465.67
 20
6330.11
 11
14464.09
 21
6328.65
  0
LINE
  8
L-1-1
 10
14464.09
 20
6328.65
 11
14462.28
 21
6327.35
  0
LINE
  8
L-1-1
 10
14462.28
 20
6327.35
 11
14460.27
 21
6326.23
  0
LINE
  8
L-1-1
 10
14460.27
 20
6326.23
 11
14458.09
 21
6325.30
  0
LINE
  8
L-1-1
 10
14458.09
 20
6325.30
 11
14455.77
 21
6324.59
  0
LINE
  8
L-1-1
 10
14455.77
 20
6324.59
 11
14453.35
 21
6324.10
  0
LINE
  8
L-1-1
 10
14453.35
 20
6324.10
 11
14450.86
 21
6323.84
  0
LINE
  8
L-1-1
 10
14450.86
 20
6323.84
 11
14448.35
 21
6323.82
  0
LINE
  8
L-1-1
 10
14448.35
 20
6323.82
 11
14445.86
 21
6324.03
  0
LINE
  8
L-1-1
 10
14445.86
 20
6324.03
 11
14443.42
 21
6324.47
  0
LINE
  8
L-1-1
 10
14443.42
 20
6324.47
 11
14441.08
 21
6325.14
  0
LINE
  8
L-1-1
 10
14441.08
 20
6325.14
 11
14438.87
 21
6326.02
  0
LINE
  8
L-1-1
 10
14438.87
 20
6326.02
 11
14436.81
 21
6327.10
  0
LINE
  8
L-1-1
 10
14436.81
 20
6327.10
 11
14434.96
 21
6328.37
  0
LINE
  8
L-1-1
 10
14434.96
 20
6328.37
 11
14433.33
 21
6329.80
  0
LINE
  8
L-1-1
 10
14433.33
 20
6329.80
 11
14431.96
 21
6331.37
  0
LINE
  8
L-1-1
 10
14431.96
 20
6331.37
 11
14430.85
 21
6333.06
  0
LINE
  8
L-1-1
 10
14430.85
 20
6333.06
 11
14430.04
 21
6334.84
  0
LINE
  8
L-1-1
 10
14430.04
 20
6334.84
 11
14429.53
 21
6336.68
  0
LINE
  8
L-1-1
 10
14429.53
 20
6336.68
 11
14429.35
 21
6338.82
  0
LINE
  8
L-1-1
 10
14529.35
 20
6338.82
 11
14470.06
 21
6372.17
  0
ARC
  8
L-1-1
 10
14443.09
 20
6324.21
 40
55.03
 50
60.64
 51
107.36
  0
LINE
  8
L-1-1
 10
14426.67
 20
6376.73
 11
14369.35
 21
6358.82
  0
ARC
  8
L-1-1
 10
14443.09
 20
6324.20
 40
62.53
 50
60.64
 51
107.35
  0
LINE
  8
L-1-1
 10
14529.35
 20
6347.42
 11
14473.74
 21
6378.70
  0
LINE
  8
L-1-1
 10
14424.44
 20
6383.89
 11
14369.35
 21
6366.67
  0
LINE
  8
L-1-1
 10
14429.35
 20
6410.96
 11
14429.51
 21
6412.83
  0
LINE
  8
L-1-1
 10
14429.51
 20
6412.83
 11
14429.98
 21
6414.68
  0
LINE
  8
L-1-1
 10
14429.98
 20
6414.68
 11
14430.75
 21
6416.47
  0
LINE
  8
L-1-1
 10
14430.75
 20
6416.47
 11
14431.81
 21
6418.17
  0
LINE
  8
L-1-1
 10
14431.81
 20
6418.17
 11
14433.15
 21
6419.76
  0
LINE
  8
L-1-1
 10
14433.15
 20
6419.76
 11
14434.74
 21
6421.21
  0
LINE
  8
L-1-1
 10
14434.74
 20
6421.21
 11
14436.57
 21
6422.50
  0
LINE
  8
L-1-1
 10
14436.57
 20
6422.50
 11
14438.59
 21
6423.60
  0
LINE
  8
L-1-1
 10
14438.59
 20
6423.60
 11
14440.78
 21
6424.51
  0
LINE
  8
L-1-1
 10
14440.78
 20
6424.51
 11
14443.11
 21
6425.21
  0
LINE
  8
L-1-1
 10
14443.11
 20
6425.21
 11
14445.53
 21
6425.69
  0
LINE
  8
L-1-1
 10
14445.53
 20
6425.69
 11
14448.02
 21
6425.93
  0
LINE
  8
L-1-1
 10
14448.02
 20
6425.93
 11
14450.52
 21
6425.94
  0
LINE
  8
L-1-1
 10
14450.52
 20
6425.94
 11
14453.01
 21
6425.71
  0
LINE
  8
L-1-1
 10
14453.01
 20
6425.71
 11
14455.44
 21
6425.25
  0
LINE
  8
L-1-1
 10
14455.44
 20
6425.25
 11
14457.77
 21
6424.57
  0
LINE
  8
L-1-1
 10
14457.77
 20
6424.57
 11
14459.98
 21
6423.68
  0
LINE
  8
L-1-1
 10
14459.98
 20
6423.68
 11
14462.01
 21
6422.58
  0
LINE
  8
L-1-1
 10
14462.01
 20
6422.58
 11
14463.85
 21
6421.30
  0
LINE
  8
L-1-1
 10
14463.85
 20
6421.30
 11
14465.46
 21
6419.86
  0
LINE
  8
L-1-1
 10
14465.46
 20
6419.86
 11
14466.82
 21
6418.28
  0
LINE
  8
L-1-1
 10
14466.82
 20
6418.28
 11
14467.91
 21
6416.59
  0
LINE
  8
L-1-1
 10
14467.91
 20
6416.59
 11
14468.70
 21
6414.80
  0
LINE
  8
L-1-1
 10
14468.70
 20
6414.80
 11
14469.19
 21
6412.96
  0
LINE
  8
L-1-1
 10
14469.19
 20
6412.96
 11
14469.37
 21
6411.09
  0
LINE
  8
L-1-1
 10
14469.37
 20
6411.09
 11
14469.23
 21
6409.21
  0
LINE
  8
L-1-1
 10
14469.23
 20
6409.21
 11
14468.79
 21
6407.36
  0
LINE
  8
L-1-1
 10
14468.79
 20
6407.36
 11
14468.03
 21
6405.56
  0
LINE
  8
L-1-1
 10
14468.03
 20
6405.56
 11
14466.99
 21
6403.86
  0
LINE
  8
L-1-1
 10
14466.99
 20
6403.86
 11
14465.67
 21
6402.26
  0
LINE
  8
L-1-1
 10
14465.67
 20
6402.26
 11
14464.09
 21
6400.80
  0
LINE
  8
L-1-1
 10
14464.09
 20
6400.80
 11
14462.28
 21
6399.49
  0
LINE
  8
L-1-1
 10
14462.28
 20
6399.49
 11
14460.27
 21
6398.37
  0
LINE
  8
L-1-1
 10
14460.27
 20
6398.37
 11
14458.09
 21
6397.45
  0
LINE
  8
L-1-1
 10
14458.09
 20
6397.45
 11
14455.77
 21
6396.73
  0
LINE
  8
L-1-1
 10
14455.77
 20
6396.73
 11
14453.35
 21
6396.24
  0
LINE
  8
L-1-1
 10
14453.35
 20
6396.24
 11
14450.86
 21
6395.98
  0
LINE
  8
L-1-1
 10
14450.86
 20
6395.98
 11
14448.35
 21
6395.96
  0
LINE
  8
L-1-1
 10
14448.35
 20
6395.96
 11
14445.86
 21
6396.17
  0
LINE
  8
L-1-1
 10
14445.86
 20
6396.17
 11
14443.42
 21
6396.61
  0
LINE
  8
L-1-1
 10
14443.42
 20
6396.61
 11
14441.08
 21
6397.28
  0
LINE
  8
L-1-1
 10
14441.08
 20
6397.28
 11
14438.87
 21
6398.16
  0
LINE
  8
L-1-1
 10
14438.87
 20
6398.16
 11
14436.81
 21
6399.25
  0
LINE
  8
L-1-1
 10
14436.81
 20
6399.25
 11
14434.96
 21
6400.51
  0
LINE
  8
L-1-1
 10
14434.96
 20
6400.51
 11
14433.33
 21
6401.94
  0
LINE
  8
L-1-1
 10
14433.33
 20
6401.94
 11
14431.96
 21
6403.52
  0
LINE
  8
L-1-1
 10
14431.96
 20
6403.52
 11
14430.85
 21
6405.21
  0
LINE
  8
L-1-1
 10
14430.85
 20
6405.21
 11
14430.04
 21
6406.99
  0
LINE
  8
L-1-1
 10
14430.04
 20
6406.99
 11
14429.53
 21
6408.83
  0
LINE
  8
L-1-1
 10
14429.53
 20
6408.83
 11
14429.35
 21
6410.96
  0
LINE
  8
L-1-1
 10
14529.35
 20
6410.96
 11
14470.06
 21
6444.31
  0
ARC
  8
L-1-1
 10
14443.09
 20
6396.35
 40
55.03
 50
60.64
 51
107.36
  0
LINE
  8
L-1-1
 10
14426.67
 20
6448.87
 11
14369.35
 21
6430.96
  0
ARC
  8
L-1-1
 10
14443.08
 20
6396.35
 40
62.53
 50
60.64
 51
107.35
  0
LINE
  8
L-1-1
 10
14529.35
 20
6419.56
 11
14473.74
 21
6450.84
  0
LINE
  8
L-1-1
 10
14424.44
 20
6456.03
 11
14369.35
 21
6438.82
  0
LINE
  8
L-1-1
 10
14369.35
 20
6390.96
 11
14406.95
 21
6378.42
  0
LINE
  8
L-1-1
 10
14669.35
 20
6359.32
 11
14669.35
 21
6806.82
  0
LINE
  8
L-1-1
 10
14661.85
 20
6359.32
 11
14661.85
 21
6806.82
  0
LINE
  8
L-1-1
 10
4270.83
 20
6409.32
 11
4270.83
 21
7209.32
  0
LINE
  8
L-1-1
 10
4270.83
 20
7209.32
 11
3470.83
 21
7209.32
  0
LINE
  8
L-1-1
 10
3470.83
 20
7209.32
 11
3470.83
 21
6409.32
  0
LINE
  8
L-1-1
 10
3470.83
 20
6409.32
 11
4270.83
 21
6409.32
  0
LINE
  8
L-1-1
 10
4408.33
 20
6179.32
 11
3333.33
 21
6179.32
  0
LINE
  8
L-1-1
 10
4408.33
 20
6299.32
 11
3333.33
 21
6299.32
  0
LINE
  8
L-1-1
 10
3333.33
 20
4284.32
 11
4408.33
 21
4284.32
  0
LINE
  8
L-1-1
 10
4408.33
 20
4524.32
 11
3333.33
 21
4524.32
  0
LINE
  8
L-1-1
 10
4408.33
 20
4534.32
 11
3333.33
 21
4534.32
  0
LINE
  8
L-1-1
 10
3470.83
 20
6409.32
 11
4270.83
 21
7209.32
  0
LINE
  8
L-1-1
 10
4270.83
 20
6409.32
 11
3470.83
 21
7209.32
  0
LINE
  8
L-1-1
 10
4408.33
 20
4534.32
 11
3333.33
 21
4534.32
  0
LINE
  8
L-1-1
 10
4273.33
 20
4634.32
 11
4433.33
 21
4634.32
  0
LINE
  8
L-1-1
 10
4433.33
 20
4634.32
 11
4433.33
 21
4834.32
  0
LINE
  8
L-1-1
 10
4433.33
 20
4834.32
 11
4273.33
 21
4834.32
  0
LINE
  8
L-1-1
 10
4273.33
 20
4614.32
 11
4273.33
 21
4854.32
  0
LINE
  8
L-1-1
 10
4408.33
 20
4634.32
 11
4408.33
 21
4184.32
  0
LINE
  8
L-1-1
 10
4183.33
 20
4594.32
 11
4183.33
 21
4874.32
  0
LINE
  8
L-1-1
 10
4408.33
 20
4614.32
 11
4183.33
 21
4614.32
  0
LINE
  8
L-1-1
 10
4183.33
 20
4854.32
 11
4408.33
 21
4854.32
  0
LINE
  8
L-1-1
 10
4113.33
 20
4534.32
 11
4113.33
 21
4934.32
  0
LINE
  8
L-1-1
 10
4093.33
 20
4934.32
 11
4093.33
 21
4534.32
  0
LINE
  8
L-1-1
 10
4408.33
 20
4594.32
 11
4113.33
 21
4594.32
  0
LINE
  8
L-1-1
 10
4113.33
 20
4874.32
 11
4408.33
 21
4874.32
  0
LINE
  8
L-1-1
 10
3843.33
 20
4534.32
 11
3843.33
 21
4934.32
  0
LINE
  8
L-1-1
 10
3823.33
 20
4934.32
 11
3823.33
 21
4534.32
  0
LINE
  8
L-1-1
 10
4093.33
 20
4594.32
 11
3843.33
 21
4594.32
  0
LINE
  8
L-1-1
 10
3843.33
 20
4874.32
 11
4093.33
 21
4874.32
  0
LINE
  8
L-1-1
 10
3843.33
 20
4624.32
 11
4093.33
 21
4624.32
  0
LINE
  8
L-1-1
 10
3843.33
 20
4844.32
 11
4093.33
 21
4844.32
  0
LINE
  8
L-1-1
 10
3968.33
 20
4575.85
 11
3968.33
 21
4898.91
  0
LINE
  8
L-1-1
 10
3663.33
 20
4634.32
 11
3443.33
 21
4634.32
  0
LINE
  8
L-1-1
 10
3443.33
 20
4634.32
 11
3443.33
 21
4534.32
  0
LINE
  8
L-1-1
 10
3663.33
 20
4634.32
 11
3663.33
 21
4534.32
  0
LINE
  8
L-1-1
 10
3823.33
 20
4594.32
 11
3663.33
 21
4594.32
  0
LINE
  8
L-1-1
 10
3443.33
 20
4614.39
 11
3333.33
 21
4614.39
  0
LINE
  8
L-1-1
 10
3788.33
 20
4624.32
 11
3798.33
 21
4624.32
  0
ARC
  8
L-1-1
 10
3788.33
 20
4634.32
 40
10.00
 50
180.00
 51
270.00
  0
LINE
  8
L-1-1
 10
3798.33
 20
4844.32
 11
3788.33
 21
4844.32
  0
LINE
  8
L-1-1
 10
3778.33
 20
4834.32
 11
3778.33
 21
4634.32
  0
ARC
  8
L-1-1
 10
3788.33
 20
4834.32
 40
10.00
 50
90.00
 51
180.00
  0
LINE
  8
L-1-1
 10
3808.33
 20
4869.32
 11
3823.33
 21
4869.32
  0
ARC
  8
L-1-1
 10
3808.33
 20
4859.32
 40
10.00
 50
90.00
 51
180.00
  0
LINE
  8
L-1-1
 10
3823.33
 20
4599.32
 11
3808.33
 21
4599.32
  0
LINE
  8
L-1-1
 10
3798.33
 20
4609.32
 11
3798.33
 21
4859.32
  0
ARC
  8
L-1-1
 10
3808.33
 20
4609.32
 40
10.00
 50
180.00
 51
270.00
  0
LINE
  8
L-1-1
 10
3778.33
 20
4640.61
 11
3408.33
 21
4640.61
  0
ARC
  8
L-1-1
 10
3408.33
 20
4650.61
 40
10.00
 50
180.00
 51
270.00
  0
LINE
  8
L-1-1
 10
3398.33
 20
4650.61
 11
3398.33
 21
4818.02
  0
ARC
  8
L-1-1
 10
3408.33
 20
4818.02
 40
10.00
 50
90.00
 51
180.00
  0
LINE
  8
L-1-1
 10
3778.33
 20
4828.02
 11
3408.33
 21
4828.02
  0
LINE
  8
L-1-1
 10
3431.55
 20
4640.61
 11
3431.55
 21
4828.02
  0
LINE
  8
L-1-1
 10
3524.01
 20
4869.32
 11
3524.01
 21
4934.32
  0
LINE
  8
L-1-1
 10
4408.33
 20
4934.32
 11
3524.01
 21
4934.32
  0
LINE
  8
L-1-1
 10
3524.01
 20
4874.32
 11
3823.33
 21
4874.32
  0
LINE
  8
L-1-1
 10
3333.33
 20
4959.32
 11
4408.33
 21
4959.32
  0
LINE
  8
L-1-1
 10
3468.33
 20
5059.32
 11
3308.33
 21
5059.32
  0
LINE
  8
L-1-1
 10
3308.33
 20
5259.32
 11
3468.33
 21
5259.32
  0
LINE
  8
L-1-1
 10
3468.33
 20
5039.32
 11
3468.33
 21
5279.32
  0
LINE
  8
L-1-1
 10
3558.33
 20
5019.32
 11
3558.33
 21
5299.32
  0
LINE
  8
L-1-1
 10
3333.33
 20
5039.32
 11
3558.33
 21
5039.32
  0
LINE
  8
L-1-1
 10
3558.33
 20
5279.32
 11
3333.33
 21
5279.32
  0
LINE
  8
L-1-1
 10
3628.33
 20
4959.32
 11
3628.33
 21
5359.32
  0
LINE
  8
L-1-1
 10
3648.33
 20
5359.32
 11
3648.33
 21
4959.32
  0
LINE
  8
L-1-1
 10
3333.33
 20
5019.32
 11
3628.33
 21
5019.32
  0
LINE
  8
L-1-1
 10
3898.33
 20
4959.32
 11
3898.33
 21
5359.32
  0
LINE
  8
L-1-1
 10
3918.33
 20
5359.32
 11
3918.33
 21
4959.32
  0
LINE
  8
L-1-1
 10
3648.33
 20
5019.32
 11
3898.33
 21
5019.32
  0
LINE
  8
L-1-1
 10
3898.33
 20
5049.32
 11
3648.33
 21
5049.32
  0
LINE
  8
L-1-1
 10
3898.33
 20
5269.32
 11
3648.33
 21
5269.32
  0
LINE
  8
L-1-1
 10
3773.33
 20
5000.85
 11
3773.33
 21
5323.91
  0
LINE
  8
L-1-1
 10
3953.33
 20
5049.32
 11
3943.33
 21
5049.32
  0
ARC
  8
L-1-1
 10
3953.33
 20
5059.32
 40
10.00
 50
270.00
 51
0.00
  0
LINE
  8
L-1-1
 10
3943.33
 20
5269.32
 11
3953.33
 21
5269.32
  0
LINE
  8
L-1-1
 10
3963.33
 20
5259.32
 11
3963.33
 21
5059.32
  0
ARC
  8
L-1-1
 10
3953.33
 20
5259.32
 40
10.00
 50
0.00
 51
90.00
  0
LINE
  8
L-1-1
 10
3933.33
 20
5294.32
 11
3918.33
 21
5294.32
  0
ARC
  8
L-1-1
 10
3933.33
 20
5284.32
 40
10.00
 50
0.00
 51
90.00
  0
LINE
  8
L-1-1
 10
3918.33
 20
5024.32
 11
3933.33
 21
5024.32
  0
LINE
  8
L-1-1
 10
3943.33
 20
5034.32
 11
3943.33
 21
5284.32
  0
ARC
  8
L-1-1
 10
3933.33
 20
5034.32
 40
10.00
 50
270.00
 51
0.00
  0
LINE
  8
L-1-1
 10
3963.33
 20
5065.61
 11
4333.33
 21
5065.61
  0
ARC
  8
L-1-1
 10
4333.33
 20
5075.61
 40
10.00
 50
270.00
 51
0.00
  0
LINE
  8
L-1-1
 10
4343.33
 20
5075.61
 11
4343.33
 21
5243.02
  0
ARC
  8
L-1-1
 10
4333.33
 20
5243.02
 40
10.00
 50
0.00
 51
90.00
  0
LINE
  8
L-1-1
 10
3963.33
 20
5253.02
 11
4333.33
 21
5253.02
  0
LINE
  8
L-1-1
 10
4310.11
 20
5065.61
 11
4310.11
 21
5253.02
  0
LINE
  8
L-1-1
 10
3308.33
 20
5059.32
 11
3308.33
 21
5259.32
  0
LINE
  8
L-1-1
 10
3333.33
 20
4184.32
 11
3333.33
 21
5059.32
  0
LINE
  8
L-1-1
 10
4298.33
 20
5259.32
 11
4298.33
 21
5359.32
  0
LINE
  8
L-1-1
 10
4298.33
 20
5279.24
 11
4408.33
 21
5279.24
  0
LINE
  8
L-1-1
 10
4078.33
 20
5259.32
 11
4078.33
 21
5359.32
  0
LINE
  8
L-1-1
 10
3918.33
 20
5299.32
 11
4078.33
 21
5299.32
  0
LINE
  8
L-1-1
 10
4078.33
 20
5259.32
 11
4298.33
 21
5259.32
  0
LINE
  8
L-1-1
 10
4408.33
 20
5359.32
 11
3333.33
 21
5359.32
  0
LINE
  8
L-1-1
 10
3333.33
 20
4959.32
 11
4217.65
 21
4959.32
  0
LINE
  8
L-1-1
 10
4217.65
 20
5019.32
 11
3918.33
 21
5019.32
  0
LINE
  8
L-1-1
 10
3898.33
 20
5019.32
 11
3648.33
 21
5019.32
  0
LINE
  8
L-1-1
 10
3628.33
 20
5019.32
 11
3333.33
 21
5019.32
  0
LINE
  8
L-1-1
 10
4217.65
 20
5019.32
 11
4217.65
 21
4959.32
  0
LINE
  8
L-1-1
 10
3333.33
 20
5299.32
 11
3628.33
 21
5299.32
  0
CIRCLE
  8
L-1-1
 10
3870.83
 20
5874.32
 40
180.00
  0
LINE
  8
L-1-1
 10
3560.37
 20
5874.32
 11
4194.73
 21
5874.32
  0
CIRCLE
  8
L-1-1
 10
3870.83
 20
5874.32
 40
90.00
  0
CIRCLE
  8
L-1-1
 10
3870.83
 20
5874.32
 40
155.00
  0
CIRCLE
  8
L-1-1
 10
3870.83
 20
5874.32
 40
205.00
  0
CIRCLE
  8
L-1-1
 10
3870.83
 20
5694.32
 40
10.00
  0
CIRCLE
  8
L-1-1
 10
3998.11
 20
5747.04
 40
10.00
  0
CIRCLE
  8
L-1-1
 10
4050.83
 20
5874.32
 40
10.00
  0
CIRCLE
  8
L-1-1
 10
3998.11
 20
6001.59
 40
10.00
  0
CIRCLE
  8
L-1-1
 10
3870.83
 20
6054.32
 40
10.00
  0
CIRCLE
  8
L-1-1
 10
3743.55
 20
6001.59
 40
10.00
  0
CIRCLE
  8
L-1-1
 10
3690.83
 20
5874.32
 40
10.00
  0
CIRCLE
  8
L-1-1
 10
3743.55
 20
5747.04
 40
10.00
  0
LINE
  8
L-1-1
 10
4145.83
 20
6179.32
 11
4145.83
 21
5599.32
  0
LINE
  8
L-1-1
 10
4145.83
 20
5599.32
 11
3595.83
 21
5599.32
  0
LINE
  8
L-1-1
 10
3595.83
 20
5599.32
 11
3595.83
 21
6179.32
  0
LINE
  8
L-1-1
 10
3595.83
 20
6179.32
 11
4145.83
 21
6179.32
  0
LINE
  8
L-1-1
 10
4120.83
 20
6179.32
 11
4120.83
 21
5624.32
  0
LINE
  8
L-1-1
 10
4120.83
 20
5624.32
 11
3620.83
 21
5624.32
  0
LINE
  8
L-1-1
 10
3620.83
 20
5624.32
 11
3620.83
 21
6179.32
  0
LINE
  8
L-1-1
 10
3132.14
 20
6809.32
 11
4653.99
 21
6809.32
  0
LINE
  8
L-1-1
 10
4533.33
 20
4184.32
 11
4533.33
 21
7752.32
  0
LINE
  8
L-1-1
 10
4533.33
 20
7752.32
 11
3208.33
 21
7752.32
  0
LINE
  8
L-1-1
 10
3208.33
 20
7752.32
 11
3208.33
 21
4184.32
  0
LINE
  8
L-1-1
 10
3208.33
 20
4184.32
 11
4533.33
 21
4184.32
  0
LINE
  8
L-1-1
 10
4408.33
 20
7752.32
 11
4408.33
 21
4834.32
  0
LINE
  8
L-1-1
 10
3333.33
 20
5259.32
 11
3333.33
 21
7752.32
  0
LINE
  8
L-1-1
 10
3333.33
 20
7622.32
 11
4408.33
 21
7622.32
  0
LINE
  8
L-1-1
 10
13716.35
 20
4959.32
 11
14031.85
 21
4959.32
  0
LINE
  8
L-1-1
 10
14031.85
 20
4959.32
 11
14031.85
 21
5359.32
  0
LINE
  8
L-1-1
 10
14031.85
 20
5359.32
 11
13716.35
 21
5359.32
  0
LINE
  8
L-1-1
 10
13716.35
 20
5359.32
 11
13716.35
 21
4959.32
  0
LINE
  8
L-1-1
 10
14131.85
 20
5294.32
 11
14041.85
 21
5294.32
  0
LINE
  8
L-1-1
 10
14041.85
 20
5024.32
 11
14131.85
 21
5024.32
  0
LINE
  8
L-1-1
 10
14031.85
 20
4959.32
 11
14031.85
 21
5034.32
  0
LINE
  8
L-1-1
 10
14031.85
 20
5034.32
 11
14131.85
 21
5034.32
  0
LINE
  8
L-1-1
 10
14131.85
 20
5034.32
 11
14131.85
 21
5024.32
  0
LINE
  8
L-1-1
 10
14131.85
 20
5024.32
 11
14031.85
 21
4959.32
  0
LINE
  8
L-1-1
 10
14131.85
 20
5294.32
 11
14131.85
 21
5284.32
  0
LINE
  8
L-1-1
 10
14131.85
 20
5284.32
 11
14031.85
 21
5284.32
  0
LINE
  8
L-1-1
 10
14031.85
 20
5284.32
 11
14031.85
 21
5359.32
  0
LINE
  8
L-1-1
 10
14031.85
 20
5359.32
 11
14131.85
 21
5294.32
  0
LINE
  8
L-1-1
 10
14041.85
 20
4959.32
 11
14041.85
 21
5024.32
  0
LINE
  8
L-1-1
 10
14041.85
 20
5294.32
 11
14041.85
 21
5359.32
  0
LINE
  8
L-1-1
 10
14041.85
 20
4959.32
 11
14031.85
 21
4959.32
  0
LINE
  8
L-1-1
 10
14041.85
 20
5359.32
 11
14031.85
 21
5359.32
  0
ARC
  8
L-1-1
 10
13716.35
 20
5159.32
 40
100.00
 50
258.75
 51
101.25
  0
ARC
  8
L-1-1
 10
13716.35
 20
5159.32
 40
125.00
 50
261.02
 51
98.97
  0
ARC
  8
L-1-1
 10
13716.35
 20
5159.32
 40
150.00
 50
262.53
 51
97.47
  0
ARC
  8
L-1-1
 10
13716.35
 20
5159.32
 40
100.00
 50
119.67
 51
240.33
  0
ARC
  8
L-1-1
 10
13716.35
 20
5159.32
 40
125.00
 50
113.33
 51
246.67
  0
ARC
  8
L-1-1
 10
13716.35
 20
5159.32
 40
150.00
 50
109.27
 51
250.73
  0
ARC
  8
L-1-1
 10
13716.35
 20
5159.32
 40
200.00
 50
104.33
 51
255.67
  0
ARC
  8
L-1-1
 10
13716.36
 20
5159.32
 40
200.00
 50
264.40
 51
270.00
  0
ARC
  8
L-1-1
 10
13716.35
 20
5159.32
 40
200.00
 50
90.00
 51
95.59
  0
ARC
  8
L-1-1
 10
13826.35
 20
4734.32
 40
150.00
 50
221.80
 51
138.20
  0
ARC
  8
L-1-1
 10
13826.35
 20
4734.32
 40
100.00
 50
236.63
 51
123.37
  0
ARC
  8
L-1-1
 10
13826.35
 20
4734.32
 40
125.00
 50
229.87
 51
130.13
  0
LINE
  8
L-1-1
 10
14041.85
 20
4599.32
 11
14131.85
 21
4599.32
  0
LINE
  8
L-1-1
 10
14031.85
 20
4534.32
 11
14031.85
 21
4609.32
  0
LINE
  8
L-1-1
 10
14031.85
 20
4609.32
 11
14131.85
 21
4609.32
  0
LINE
  8
L-1-1
 10
14131.85
 20
4609.32
 11
14131.85
 21
4599.32
  0
LINE
  8
L-1-1
 10
14131.85
 20
4599.32
 11
14031.85
 21
4534.32
  0
LINE
  8
L-1-1
 10
14041.85
 20
4534.32
 11
14041.85
 21
4599.32
  0
LINE
  8
L-1-1
 10
13716.35
 20
4534.32
 11
14031.85
 21
4534.32
  0
LINE
  8
L-1-1
 10
14031.85
 20
4534.32
 11
14031.85
 21
4934.32
  0
LINE
  8
L-1-1
 10
14031.85
 20
4934.32
 11
13716.35
 21
4934.32
  0
LINE
  8
L-1-1
 10
13716.35
 20
4934.32
 11
13716.35
 21
4534.32
  0
LINE
  8
L-1-1
 10
14131.85
 20
4869.32
 11
14041.85
 21
4869.32
  0
LINE
  8
L-1-1
 10
14131.85
 20
4869.32
 11
14131.85
 21
4859.32
  0
LINE
  8
L-1-1
 10
14131.85
 20
4859.32
 11
14031.85
 21
4859.32
  0
LINE
  8
L-1-1
 10
14031.85
 20
4859.32
 11
14031.85
 21
4934.32
  0
LINE
  8
L-1-1
 10
14031.85
 20
4934.32
 11
14131.85
 21
4869.32
  0
LINE
  8
L-1-1
 10
14041.85
 20
4869.32
 11
14041.85
 21
4934.32
  0
LINE
  8
L-1-1
 10
14041.85
 20
4934.32
 11
14031.85
 21
4934.32
  0
ARC
  8
L-1-1
 10
13716.35
 20
4734.32
 40
150.00
 50
262.53
 51
291.51
  0
ARC
  8
L-1-1
 10
13716.35
 20
4734.32
 40
125.00
 50
261.02
 51
280.95
  0
ARC
  8
L-1-1
 10
13716.35
 20
4734.32
 40
200.00
 50
104.33
 51
270.00
  0
ARC
  8
L-1-1
 10
13716.35
 20
4734.32
 40
150.00
 50
109.27
 51
262.53
  0
ARC
  8
L-1-1
 10
13716.35
 20
4734.32
 40
125.00
 50
113.33
 51
261.02
  0
ARC
  8
L-1-1
 10
13716.35
 20
4734.32
 40
100.00
 50
119.67
 51
258.75
  0
ARC
  8
L-1-1
 10
13716.35
 20
4734.32
 40
100.00
 50
258.75
 51
101.25
  0
ARC
  8
L-1-1
 10
13716.35
 20
4734.32
 40
125.00
 50
79.05
 51
98.97
  0
ARC
  8
L-1-1
 10
13716.35
 20
4734.32
 40
150.00
 50
68.49
 51
97.47
  0
ARC
  8
L-1-1
 10
13716.36
 20
4734.32
 40
200.00
 50
90.00
 51
95.60
  0
LINE
  8
L-1-1
 10
14031.85
 20
4534.32
 11
14041.85
 21
4534.32
  0
LINE
  8
L-1-1
 10
10197.00
 20
4326.92
 11
13727.28
 21
4584.71
  0
LINE
  8
L-1-1
 10
10303.71
 20
4418.44
 11
13741.85
 21
5011.50
  0
LINE
  8
L-1-1
 10
14131.85
 20
7752.32
 11
14039.67
 21
7752.32
  0
ARC
  8
L-1-1
 10
14039.67
 20
7703.42
 40
48.90
 50
90.00
 51
180.00
  0
LINE
  8
L-1-1
 10
13990.77
 20
7703.42
 11
13990.77
 21
7690.62
  0
ARC
  8
L-1-1
 10
14039.67
 20
7690.62
 40
48.90
 50
180.00
 51
250.77
  0
LINE
  8
L-1-1
 10
14023.56
 20
7644.45
 11
14131.85
 21
7606.68
  0
LINE
  8
L-1-1
 10
14191.85
 20
7752.32
 11
14191.85
 21
7779.82
  0
LINE
  8
L-1-1
 10
14191.85
 20
7779.82
 11
14131.85
 21
7779.82
  0
LINE
  8
L-1-1
 10
14131.85
 20
7779.82
 11
14131.85
 21
7752.32
  0
LINE
  8
L-1-1
 10
14131.85
 20
7752.32
 11
14191.85
 21
7752.32
  0
LINE
  8
L-1-1
 10
13666.85
 20
5961.32
 11
13666.85
 21
7779.82
  0
LINE
  8
L-1-1
 10
13696.85
 20
5961.32
 11
13696.85
 21
7779.82
  0
LINE
  8
L-1-1
 10
13246.85
 20
4284.32
 11
13246.85
 21
7809.82
  0
LINE
  8
L-1-1
 10
13216.85
 20
4284.32
 11
13216.85
 21
7809.82
  0
CIRCLE
  8
L-1-1
 10
14058.38
 20
7694.58
 40
32.77
  0
CIRCLE
  8
L-1-1
 10
14058.38
 20
7694.58
 40
48.90
  0
LINE
  8
L-1-1
 10
14027.55
 20
7590.59
 11
13950.07
 21
7688.68
  0
LINE
  8
L-1-1
 10
14088.69
 20
7656.21
 11
14019.12
 21
7601.26
  0
LINE
  8
L-1-1
 10
14028.08
 20
7732.96
 11
13958.50
 21
7678.01
  0
LINE
  8
L-1-1
 10
13950.07
 20
7688.68
 11
10260.00
 21
4581.15
  0
LINE
  8
L-1-1
 10
14027.55
 20
7590.59
 11
10335.71
 21
4481.66
  0
LINE
  8
L-1-1
 10
14716.35
 20
7326.86
 11
14716.35
 21
7779.82
  0
LINE
  8
L-1-1
 10
14716.35
 20
7779.82
 11
14766.35
 21
7779.82
  0
LINE
  8
L-1-1
 10
14766.35
 20
7779.82
 11
14766.35
 21
7279.58
  0
LINE
  8
L-1-1
 10
14766.35
 20
7279.58
 11
14716.35
 21
7326.86
  0
LINE
  8
L-1-1
 10
17231.35
 20
8379.82
 11
17281.35
 21
8379.82
  0
LINE
  8
L-1-1
 10
17281.35
 20
8379.82
 11
17281.35
 21
7779.82
  0
LINE
  8
L-1-1
 10
17281.35
 20
7779.82
 11
17231.35
 21
7779.82
  0
LINE
  8
L-1-1
 10
17231.35
 20
7779.82
 11
17231.35
 21
8379.82
  0
LINE
  8
L-1-1
 10
16381.35
 20
8409.82
 11
17281.35
 21
8409.82
  0
LINE
  8
L-1-1
 10
17281.35
 20
8409.82
 11
17281.35
 21
8379.82
  0
LINE
  8
L-1-1
 10
17281.35
 20
8379.82
 11
16381.35
 21
8379.82
  0
LINE
  8
L-1-1
 10
16381.35
 20
8379.82
 11
16381.35
 21
8409.82
  0
LINE
  8
L-1-1
 10
16791.35
 20
8409.82
 11
16821.35
 21
8409.82
  0
LINE
  8
L-1-1
 10
16821.35
 20
8409.82
 11
16821.35
 21
7584.32
  0
LINE
  8
L-1-1
 10
16821.35
 20
7584.32
 11
16791.35
 21
7584.32
  0
LINE
  8
L-1-1
 10
16791.35
 20
7584.32
 11
16791.35
 21
8409.82
  0
LINE
  8
L-1-1
 10
16381.35
 20
8409.82
 11
16411.35
 21
8409.82
  0
LINE
  8
L-1-1
 10
16411.35
 20
8409.82
 11
16411.35
 21
7584.32
  0
LINE
  8
L-1-1
 10
16411.35
 20
7584.32
 11
16381.35
 21
7584.32
  0
LINE
  8
L-1-1
 10
16381.35
 20
7584.32
 11
16381.35
 21
8409.82
  0
LINE
  8
L-1-1
 10
17231.35
 20
7779.82
 11
17231.35
 21
7536.16
  0
LINE
  8
L-1-1
 10
17381.35
 20
7536.16
 11
17281.35
 21
8379.82
  0
LINE
  8
L-1-1
 10
13246.85
 20
7779.82
 11
14191.85
 21
7779.82
  0
LINE
  8
L-1-1
 10
14535.36
 20
7809.82
 11
13216.85
 21
7809.82
  0
LINE
  8
L-1-1
 10
14535.36
 20
7809.82
 11
17281.35
 21
7809.82
  0
LINE
  8
L-1-1
 10
14191.85
 20
7779.82
 11
17281.35
 21
7779.82
  0
LINE
  8
L-1-1
 10
14561.85
 20
5949.62
 11
14531.85
 21
5949.62
  0
LINE
  8
L-1-1
 10
14581.85
 20
5959.62
 11
14511.85
 21
5959.62
  0
LINE
  8
L-1-1
 10
14511.85
 20
5959.62
 11
14511.85
 21
5982.12
  0
LINE
  8
L-1-1
 10
14511.85
 20
5982.12
 11
14581.85
 21
5982.12
  0
LINE
  8
L-1-1
 10
14581.85
 20
5982.12
 11
14581.85
 21
5959.62
  0
LINE
  8
L-1-1
 10
14561.85
 20
5949.62
 11
14561.95
 21
5959.62
  0
LINE
  8
L-1-1
 10
14531.85
 20
5949.62
 11
14531.76
 21
5959.62
  0
LINE
  8
L-1-1
 10
14561.85
 20
7669.02
 11
14531.85
 21
7669.02
  0
LINE
  8
L-1-1
 10
14581.85
 20
7659.02
 11
14511.85
 21
7659.02
  0
LINE
  8
L-1-1
 10
14511.85
 20
7659.02
 11
14511.85
 21
7636.52
  0
LINE
  8
L-1-1
 10
14511.85
 20
7636.52
 11
14581.85
 21
7636.52
  0
LINE
  8
L-1-1
 10
14581.85
 20
7636.52
 11
14581.85
 21
7659.02
  0
LINE
  8
L-1-1
 10
14561.85
 20
7669.02
 11
14561.95
 21
7659.02
  0
LINE
  8
L-1-1
 10
14531.85
 20
7669.02
 11
14531.76
 21
7659.02
  0
LINE
  8
L-1-1
 10
20699.52
 20
18845.32
 11
20379.52
 21
18845.32
  0
LINE
  8
L-1-1
 10
20379.52
 20
18773.32
 11
20699.52
 21
18773.32
  0
LINE
  8
L-1-1
 10
20379.52
 20
18773.32
 11
20379.52
 21
18749.32
  0
LINE
  8
L-1-1
 10
20379.52
 20
18749.32
 11
20699.52
 21
18749.32
  0
LINE
  8
L-1-1
 10
20699.52
 20
18749.32
 11
20699.52
 21
18869.32
  0
LINE
  8
L-1-1
 10
20699.52
 20
18869.32
 11
20379.52
 21
18869.32
  0
LINE
  8
L-1-1
 10
20379.52
 20
18869.32
 11
20379.52
 21
18845.32
  0
LINE
  8
L-1-1
 10
20379.52
 20
18845.32
 11
20379.52
 21
18773.32
  0
LINE
  8
L-1-1
 10
20430.77
 20
18749.32
 11
20430.77
 21
18738.91
  0
LINE
  8
L-1-1
 10
20430.77
 20
18738.91
 11
20409.34
 21
18738.91
  0
LINE
  8
L-1-1
 10
20409.34
 20
18738.91
 11
20409.34
 21
18749.32
  0
LINE
  8
L-1-1
 10
20409.34
 20
18749.32
 11
20430.77
 21
18749.32
  0
LINE
  8
L-1-1
 10
20409.34
 20
18773.32
 11
20409.34
 21
18845.32
  0
LINE
  8
L-1-1
 10
20409.34
 20
18869.32
 11
20409.34
 21
18879.72
  0
LINE
  8
L-1-1
 10
20409.34
 20
18879.72
 11
20430.77
 21
18879.72
  0
LINE
  8
L-1-1
 10
20430.77
 20
18879.72
 11
20430.77
 21
18869.32
  0
LINE
  8
L-1-1
 10
20430.77
 20
18869.32
 11
20409.34
 21
18869.32
  0
LINE
  8
L-1-1
 10
20430.77
 20
18845.32
 11
20430.77
 21
18773.32
  0
LINE
  8
L-1-1
 10
20618.80
 20
18749.32
 11
20618.80
 21
18738.91
  0
LINE
  8
L-1-1
 10
20618.80
 20
18738.91
 11
20640.23
 21
18738.91
  0
LINE
  8
L-1-1
 10
20640.23
 20
18738.91
 11
20640.23
 21
18749.32
  0
LINE
  8
L-1-1
 10
20640.23
 20
18749.32
 11
20618.80
 21
18749.32
  0
LINE
  8
L-1-1
 10
20618.80
 20
18845.32
 11
20618.80
 21
18773.32
  0
LINE
  8
L-1-1
 10
20640.23
 20
18773.32
 11
20640.23
 21
18845.32
  0
LINE
  8
L-1-1
 10
20640.23
 20
18869.32
 11
20640.23
 21
18879.72
  0
LINE
  8
L-1-1
 10
20640.23
 20
18879.72
 11
20618.80
 21
18879.72
  0
LINE
  8
L-1-1
 10
20618.80
 20
18879.72
 11
20618.80
 21
18869.32
  0
LINE
  8
L-1-1
 10
20618.80
 20
18869.32
 11
20640.23
 21
18869.32
  0
LINE
  8
L-1-1
 10
20789.94
 20
18791.33
 11
20789.94
 21
18827.30
  0
LINE
  8
L-1-1
 10
20836.32
 20
18796.47
 11
20789.94
 21
18791.33
  0
LINE
  8
L-1-1
 10
20789.94
 20
18827.30
 11
20836.32
 21
18822.16
  0
LINE
  8
L-1-1
 10
20789.94
 20
18827.30
 11
20656.32
 21
18827.30
  0
LINE
  8
L-1-1
 10
20656.32
 20
18827.30
 11
20656.32
 21
18791.33
  0
LINE
  8
L-1-1
 10
20656.32
 20
18791.33
 11
20789.94
 21
18791.33
  0
LINE
  8
L-1-1
 10
20789.94
 20
18791.33
 11
20789.94
 21
18827.30
  0
LINE
  8
L-1-1
 10
20836.32
 20
18796.47
 11
20836.32
 21
18822.16
  0
LINE
  8
L-1-1
 10
19695.24
 20
12901.45
 11
20189.24
 21
12901.45
  0
LINE
  8
L-1-1
 10
20189.24
 20
13395.45
 11
20189.24
 21
12901.45
  0
LINE
  8
L-1-1
 10
20189.24
 20
13395.45
 11
19695.24
 21
13395.45
  0
LINE
  8
L-1-1
 10
19695.24
 20
13395.45
 11
19695.24
 21
12901.45
  0
LINE
  8
L-1-1
 10
19542.24
 20
13346.21
 11
19542.24
 21
12950.68
  0
LINE
  8
L-1-1
 10
20140.01
 20
13548.45
 11
19744.48
 21
13548.45
  0
LINE
  8
L-1-1
 10
19744.48
 20
12748.45
 11
20140.01
 21
12748.45
  0
LINE
  8
L-1-1
 10
20342.24
 20
12950.68
 11
20342.24
 21
13346.21
  0
LINE
  8
L-1-1
 10
19194.68
 20
13148.45
 11
20689.81
 21
13148.45
  0
LINE
  8
L-1-1
 10
19942.24
 20
14063.67
 11
19942.24
 21
12233.23
  0
LINE
  8
L-1-1
 10
19897.48
 20
13395.45
 11
19159.48
 21
14133.45
  0
LINE
  8
L-1-1
 10
19159.48
 20
14133.45
 11
18957.24
 21
13931.22
  0
LINE
  8
L-1-1
 10
18957.24
 20
13931.22
 11
19695.24
 21
13193.21
  0
LINE
  8
L-1-1
 10
19695.24
 20
13193.21
 11
19897.48
 21
13395.45
  0
LINE
  8
L-1-1
 10
19987.01
 20
12901.45
 11
20725.01
 21
12163.45
  0
LINE
  8
L-1-1
 10
20725.01
 20
12163.45
 11
20927.24
 21
12365.68
  0
LINE
  8
L-1-1
 10
20927.24
 20
12365.68
 11
20189.24
 21
13103.68
  0
LINE
  8
L-1-1
 10
20189.24
 20
13103.68
 11
19987.01
 21
12901.45
  0
LINE
  8
L-1-1
 10
18959.36
 20
13862.63
 11
19030.08
 21
13791.91
  0
LINE
  8
L-1-1
 10
19030.08
 20
13791.91
 11
19298.78
 21
14060.61
  0
LINE
  8
L-1-1
 10
19298.78
 20
14060.61
 11
19228.07
 21
14131.33
  0
LINE
  8
L-1-1
 10
19228.07
 20
14131.33
 11
18959.36
 21
13862.63
  0
LINE
  8
L-1-1
 10
18994.72
 20
13827.27
 11
19263.42
 21
14095.97
  0
LINE
  8
L-1-1
 10
20656.42
 20
12165.57
 11
20585.71
 21
12236.28
  0
LINE
  8
L-1-1
 10
20585.71
 20
12236.28
 11
20854.41
 21
12504.98
  0
LINE
  8
L-1-1
 10
20854.41
 20
12504.98
 11
20925.12
 21
12434.27
  0
LINE
  8
L-1-1
 10
20925.12
 20
12434.27
 11
20656.42
 21
12165.57
  0
LINE
  8
L-1-1
 10
20621.07
 20
12200.92
 11
20889.77
 21
12469.63
  0
LINE
  8
L-1-1
 10
20189.24
 20
13193.21
 11
20927.24
 21
13931.22
  0
LINE
  8
L-1-1
 10
20927.24
 20
13931.22
 11
20725.01
 21
14133.45
  0
LINE
  8
L-1-1
 10
20725.01
 20
14133.45
 11
19987.01
 21
13395.45
  0
LINE
  8
L-1-1
 10
19987.01
 20
13395.45
 11
20189.24
 21
13193.21
  0
LINE
  8
L-1-1
 10
20925.12
 20
13862.63
 11
20854.41
 21
13791.91
  0
LINE
  8
L-1-1
 10
20854.41
 20
13791.91
 11
20585.71
 21
14060.62
  0
LINE
  8
L-1-1
 10
20585.71
 20
14060.62
 11
20656.42
 21
14131.33
  0
LINE
  8
L-1-1
 10
20656.42
 20
14131.33
 11
20925.12
 21
13862.63
  0
LINE
  8
L-1-1
 10
20889.77
 20
13827.27
 11
20621.06
 21
14095.97
  0
LINE
  8
L-1-1
 10
19695.24
 20
13103.68
 11
18957.24
 21
12365.68
  0
LINE
  8
L-1-1
 10
18957.24
 20
12365.68
 11
19159.47
 21
12163.45
  0
LINE
  8
L-1-1
 10
19159.47
 20
12163.45
 11
19897.47
 21
12901.45
  0
LINE
  8
L-1-1
 10
19897.47
 20
12901.45
 11
19695.24
 21
13103.68
  0
LINE
  8
L-1-1
 10
19228.06
 20
12165.57
 11
19298.77
 21
12236.28
  0
LINE
  8
L-1-1
 10
19298.77
 20
12236.28
 11
19030.08
 21
12504.98
  0
LINE
  8
L-1-1
 10
19030.08
 20
12504.98
 11
18959.36
 21
12434.27
  0
LINE
  8
L-1-1
 10
18959.36
 20
12434.27
 11
19228.06
 21
12165.57
  0
LINE
  8
L-1-1
 10
19263.42
 20
12200.92
 11
18994.72
 21
12469.63
  0
LINE
  8
L-1-1
 10
20516.58
 20
4584.29
 11
20516.58
 21
5384.29
  0
LINE
  8
L-1-1
 10
20516.58
 20
5384.29
 11
19716.58
 21
5384.29
  0
LINE
  8
L-1-1
 10
19716.58
 20
5384.29
 11
19716.58
 21
4584.29
  0
LINE
  8
L-1-1
 10
19716.58
 20
4584.29
 11
20516.58
 21
4584.29
  0
ARC
  8
L-1-1
 10
14039.67
 20
5492.83
 40
48.90
 50
109.23
 51
180.00
  0
LINE
  8
L-1-1
 10
14023.56
 20
5539.00
 11
14131.85
 21
5576.77
  0
ARC
  8
L-1-1
 10
14039.67
 20
5480.03
 40
48.90
 50
180.00
 51
270.00
  0
LINE
  8
L-1-1
 10
13990.77
 20
5480.03
 11
13990.77
 21
5492.83
  0
LINE
  8
L-1-1
 10
14069.15
 20
5439.73
 11
13982.68
 21
5420.21
  0
LINE
  8
L-1-1
 10
14047.61
 20
5535.13
 11
13961.14
 21
5515.60
  0
LINE
  8
L-1-1
 10
13985.58
 20
5407.34
 11
13958.04
 21
5529.32
  0
LINE
  8
L-1-1
 10
13985.57
 20
5407.40
 11
10566.96
 21
4464.32
  0
LINE
  8
L-1-1
 10
13958.04
 20
5529.32
 11
10539.43
 21
4586.25
  0
LINE
  8
L-1-1
 10
14039.67
 20
5431.13
 11
14131.85
 21
5431.13
  0
LINE
  8
L-1-1
 10
14058.38
 20
5596.64
 11
14058.38
 21
4184.32
  0
LINE
  8
L-1-1
 10
13933.83
 20
5755.53
 11
13968.45
 21
5775.52
  0
LINE
  8
L-1-1
 10
13853.21
 20
5708.99
 11
13887.84
 21
5728.98
  0
LINE
  8
L-1-1
 10
14042.79
 20
5686.71
 11
13941.71
 21
5861.79
  0
LINE
  8
L-1-1
 10
13941.71
 20
5861.79
 11
13901.85
 21
5838.78
  0
LINE
  8
L-1-1
 10
13901.85
 20
5838.78
 11
14042.79
 21
5686.71
  0
LINE
  8
L-1-1
 10
13901.85
 20
5838.78
 11
13792.51
 21
5775.65
  0
LINE
  8
L-1-1
 10
13792.51
 20
5775.65
 11
13893.60
 21
5600.57
  0
LINE
  8
L-1-1
 10
13893.60
 20
5600.57
 11
13901.85
 21
5838.78
  0
LINE
  8
L-1-1
 10
14042.79
 20
5686.71
 11
14104.72
 21
5503.05
  0
LINE
  8
L-1-1
 10
13893.60
 20
5600.57
 11
14021.69
 21
5455.11
  0
CIRCLE
  8
L-1-1
 10
14058.38
 20
5487.43
 40
48.90
  0
CIRCLE
  8
L-1-1
 10
14058.38
 20
5487.43
 40
32.77
  0
LINE
  8
L-1-1
 10
13528.96
 20
6278.73
 11
13637.31
 21
6341.29
  0
LINE
  8
L-1-1
 10
13512.54
 20
6303.89
 11
13623.74
 21
6368.09
  0
LINE
  8
L-1-1
 10
13434.70
 20
6423.13
 11
13460.83
 21
6689.90
  0
LINE
  8
L-1-1
 10
13408.49
 20
6463.28
 11
13435.57
 21
6739.80
  0
LINE
  8
L-1-1
 10
12974.69
 20
7127.82
 11
13083.36
 21
7435.57
  0
LINE
  8
L-1-1
 10
12954.04
 20
7159.45
 11
13064.62
 21
7472.59
  0
LINE
  8
L-1-1
 10
13003.38
 20
7593.55
 11
12609.72
 21
7686.90
  0
LINE
  8
L-1-1
 10
12985.65
 20
7628.59
 11
12585.91
 21
7723.38
  0
LINE
  8
L-1-1
 10
12647.12
 20
8412.76
 11
12586.16
 21
8518.35
  0
LINE
  8
L-1-1
 10
12586.16
 20
8518.35
 11
12533.37
 21
8487.87
  0
LINE
  8
L-1-1
 10
12533.37
 20
8487.87
 11
12594.33
 21
8382.28
  0
LINE
  8
L-1-1
 10
12594.33
 20
8382.28
 11
12647.12
 21
8412.76
  0
CIRCLE
  8
L-1-1
 10
12590.25
 20
8450.31
 40
20.69
  0
LINE
  8
L-1-1
 10
12283.39
 20
8202.76
 11
12222.43
 21
8308.35
  0
LINE
  8
L-1-1
 10
12222.43
 20
8308.35
 11
12169.64
 21
8277.87
  0
LINE
  8
L-1-1
 10
12169.64
 20
8277.87
 11
12230.60
 21
8172.28
  0
LINE
  8
L-1-1
 10
12230.60
 20
8172.28
 11
12283.39
 21
8202.76
  0
CIRCLE
  8
L-1-1
 10
12226.52
 20
8240.31
 40
20.69
  0
LINE
  8
L-1-1
 10
12577.09
 20
8513.11
 11
11377.57
 21
10590.74
  0
LINE
  8
L-1-1
 10
12542.45
 20
8493.11
 11
11342.93
 21
10570.74
  0
LINE
  8
L-1-1
 10
10979.20
 20
10360.74
 11
12178.72
 21
8283.11
  0
LINE
  8
L-1-1
 10
11013.84
 20
10380.74
 11
12213.36
 21
8303.11
  0
LINE
  8
L-1-1
 10
12193.84
 20
8336.92
 11
12522.93
 21
8526.92
  0
LINE
  8
L-1-1
 10
12178.84
 20
8362.90
 11
12507.93
 21
8552.90
  0
LINE
  8
L-1-1
 10
12494.44
 20
8576.26
 11
11986.18
 21
8701.68
  0
LINE
  8
L-1-1
 10
12494.75
 20
8545.29
 11
12003.55
 21
8666.50
  0
LINE
  8
L-1-1
 10
11986.18
 20
8701.68
 11
12130.11
 21
9207.30
  0
LINE
  8
L-1-1
 10
11964.32
 20
8734.46
 11
12108.97
 21
9242.64
  0
LINE
  8
L-1-1
 10
11986.18
 20
8701.68
 11
11620.41
 21
7974.82
  0
LINE
  8
L-1-1
 10
12178.84
 20
8362.90
 11
11620.41
 21
7974.82
  0
LINE
  8
L-1-1
 10
12193.84
 20
8336.92
 11
11626.18
 21
7943.26
  0
LINE
  8
L-1-1
 10
11964.32
 20
8734.46
 11
11586.06
 21
7991.38
  0
LINE
  8
L-1-1
 10
12502.80
 20
7850.69
 11
12665.47
 21
8265.03
  0
LINE
  8
L-1-1
 10
12482.68
 20
7881.52
 11
12647.07
 21
8300.24
  0
LINE
  8
L-1-1
 10
12313.62
 20
8140.49
 11
12633.13
 21
8324.96
  0
LINE
  8
L-1-1
 10
12297.20
 20
8165.65
 11
12619.56
 21
8351.77
  0
LINE
  8
L-1-1
 10
11620.82
 20
7931.18
 11
11537.94
 21
7812.82
  0
LINE
  8
L-1-1
 10
11586.06
 20
7991.38
 11
11442.12
 21
7978.78
  0
ARC
  8
L-1-1
 10
11588.58
 20
7952.70
 40
148.76
 50
169.90
 51
250.10
  0
ARC
  8
L-1-1
 10
11588.58
 20
7952.70
 40
38.76
 50
326.27
 51
96.27
  0
LINE
  8
L-1-1
 10
11472.83
 20
10645.74
 11
11092.83
 21
11303.92
  0
LINE
  8
L-1-1
 10
11092.83
 20
11303.92
 11
10503.94
 21
10963.92
  0
LINE
  8
L-1-1
 10
10503.94
 20
10963.92
 11
10883.94
 21
10305.74
  0
LINE
  8
L-1-1
 10
10883.94
 20
10305.74
 11
11472.83
 21
10645.74
  0
LINE
  8
L-1-1
 10
10868.94
 20
10331.72
 11
11457.83
 21
10671.72
  0
LINE
  8
L-1-1
 10
11107.83
 20
11277.94
 11
10518.94
 21
10937.94
  0
LINE
  8
L-1-1
 10
8914.37
 20
14017.11
 11
10633.84
 21
11038.92
  0
LINE
  8
L-1-1
 10
8879.73
 20
13997.11
 11
10599.20
 21
11018.92
  0
LINE
  8
L-1-1
 10
10962.93
 20
11228.92
 11
9243.41
 21
14207.21
  0
LINE
  8
L-1-1
 10
10997.57
 20
11248.92
 11
9278.05
 21
14227.21
  0
LINE
  8
L-1-1
 10
11387.05
 20
10630.85
 11
11372.36
 21
10656.29
  0
LINE
  8
L-1-1
 10
11372.36
 20
10656.29
 11
11288.76
 21
10608.03
  0
LINE
  8
L-1-1
 10
11288.76
 20
10608.03
 11
11303.44
 21
10582.58
  0
LINE
  8
L-1-1
 10
11303.44
 20
10582.58
 11
11387.05
 21
10630.85
  0
LINE
  8
L-1-1
 10
11023.32
 20
10420.85
 11
11008.63
 21
10446.29
  0
LINE
  8
L-1-1
 10
11008.63
 20
10446.29
 11
10925.03
 21
10398.03
  0
LINE
  8
L-1-1
 10
10925.03
 20
10398.03
 11
10939.71
 21
10372.58
  0
LINE
  8
L-1-1
 10
10939.71
 20
10372.58
 11
11023.32
 21
10420.85
  0
LINE
  8
L-1-1
 10
11037.05
 20
11237.07
 11
11051.74
 21
11211.63
  0
LINE
  8
L-1-1
 10
11051.74
 20
11211.63
 11
10968.13
 21
11163.36
  0
LINE
  8
L-1-1
 10
10968.13
 20
11163.36
 11
10953.44
 21
11188.80
  0
LINE
  8
L-1-1
 10
10953.44
 20
11188.80
 11
11037.05
 21
11237.07
  0
LINE
  8
L-1-1
 10
10673.32
 20
11027.07
 11
10688.01
 21
11001.63
  0
LINE
  8
L-1-1
 10
10688.01
 20
11001.63
 11
10604.40
 21
10953.36
  0
LINE
  8
L-1-1
 10
10604.40
 20
10953.36
 11
10589.71
 21
10978.80
  0
LINE
  8
L-1-1
 10
10589.71
 20
10978.80
 11
10673.32
 21
11027.07
  0
ARC
  8
L-1-1
 10
10573.10
 20
10935.29
 40
588.83
 50
300.00
 51
35.79
  0
LINE
  8
L-1-1
 10
11083.04
 20
11229.70
 11
10573.10
 21
10935.29
  0
LINE
  8
L-1-1
 10
10573.10
 20
10935.29
 11
10867.52
 21
10425.35
  0
LINE
  8
L-1-1
 10
10867.52
 20
10425.35
 11
11083.04
 21
11229.70
  0
LINE
  8
L-1-1
 10
11046.91
 20
10834.99
 11
11124.45
 21
10818.58
  0
LINE
  8
L-1-1
 10
11056.72
 20
10961.04
 11
11135.87
 21
10965.25
  0
LINE
  8
L-1-1
 10
11033.58
 20
11085.33
 11
11108.94
 21
11109.89
  0
LINE
  8
L-1-1
 10
11004.80
 20
10715.78
 11
11075.46
 21
10679.85
  0
LINE
  8
L-1-1
 10
10933.28
 20
10611.53
 11
10992.23
 21
10558.54
  0
LINE
  8
L-1-1
 10
10837.21
 20
10529.34
 11
10880.44
 21
10462.90
  0
LINE
  8
L-1-1
 10
10921.53
 20
10460.62
 11
10949.51
 21
10412.16
  0
LINE
  8
L-1-1
 10
10953.27
 20
10485.64
 11
10984.15
 21
10432.16
  0
LINE
  8
L-1-1
 10
11313.24
 20
10622.16
 11
11159.99
 21
10887.59
  0
LINE
  8
L-1-1
 10
11347.88
 20
10642.16
 11
11161.15
 21
10965.59
  0
LINE
  8
L-1-1
 10
11095.64
 20
10904.60
 11
10635.59
 21
10951.87
  0
LINE
  8
L-1-1
 10
11095.64
 20
10904.60
 11
10633.33
 21
10895.01
  0
LINE
  8
L-1-1
 10
10633.33
 20
10895.01
 11
10635.59
 21
10951.87
  0
LINE
  8
L-1-1
 10
12089.02
 20
9278.47
 11
11580.65
 21
9404.07
  0
LINE
  8
L-1-1
 10
12108.97
 20
9242.64
 11
11598.04
 21
9368.87
  0
LINE
  8
L-1-1
 10
11580.65
 20
9404.07
 11
11724.69
 21
9909.51
  0
LINE
  8
L-1-1
 10
11683.60
 20
9980.67
 11
11175.13
 21
10106.46
  0
LINE
  8
L-1-1
 10
11558.80
 20
9436.84
 11
11703.56
 21
9944.83
  0
LINE
  8
L-1-1
 10
11703.56
 20
9944.83
 11
11192.52
 21
10071.25
  0
LINE
  8
L-1-1
 10
11175.13
 20
10106.46
 11
11300.61
 21
10546.30
  0
LINE
  8
L-1-1
 10
11153.28
 20
10139.22
 11
11263.26
 21
10524.74
  0
LINE
  8
L-1-1
 10
11278.18
 20
10682.88
 11
11121.79
 21
10721.61
  0
LINE
  8
L-1-1
 10
11298.15
 20
10647.03
 11
11110.05
 21
10693.62
  0
LINE
  8
L-1-1
 10
11275.09
 20
10566.21
 11
11298.15
 21
10647.03
  0
LINE
  8
L-1-1
 10
10872.77
 20
11385.08
 11
10364.08
 21
11511.23
  0
LINE
  8
L-1-1
 10
10913.99
 20
11314.05
 11
10875.59
 21
11178.49
  0
LINE
  8
L-1-1
 10
10364.08
 20
11511.23
 11
10508.43
 21
12016.12
  0
LINE
  8
L-1-1
 10
10342.24
 20
11543.98
 11
10487.32
 21
12051.42
  0
LINE
  8
L-1-1
 10
10571.37
 20
11147.12
 11
10900.46
 21
11337.12
  0
LINE
  8
L-1-1
 10
10556.37
 20
11173.10
 11
10885.46
 21
11363.10
  0
LINE
  8
L-1-1
 10
10887.17
 20
11329.45
 11
10838.31
 21
11156.97
  0
LINE
  8
L-1-1
 10
10870.83
 20
11354.65
 11
10381.48
 21
11476.01
  0
LINE
  8
L-1-1
 10
8923.45
 20
14022.35
 11
8862.49
 21
14127.94
  0
LINE
  8
L-1-1
 10
8862.49
 20
14127.94
 11
8809.70
 21
14097.46
  0
LINE
  8
L-1-1
 10
8809.70
 20
14097.46
 11
8870.66
 21
13991.87
  0
LINE
  8
L-1-1
 10
8870.66
 20
13991.87
 11
8923.45
 21
14022.35
  0
CIRCLE
  8
L-1-1
 10
8866.57
 20
14059.91
 40
20.69
  0
LINE
  8
L-1-1
 10
9287.12
 20
14232.45
 11
9226.17
 21
14338.04
  0
LINE
  8
L-1-1
 10
9226.17
 20
14338.04
 11
9173.37
 21
14307.56
  0
LINE
  8
L-1-1
 10
9173.37
 20
14307.56
 11
9234.33
 21
14201.97
  0
LINE
  8
L-1-1
 10
9234.33
 20
14201.97
 11
9287.12
 21
14232.45
  0
CIRCLE
  8
L-1-1
 10
9230.25
 20
14270.01
 40
20.69
  0
LINE
  8
L-1-1
 10
8933.89
 20
13983.30
 11
9262.98
 21
14173.30
  0
LINE
  8
L-1-1
 10
8948.89
 20
13957.32
 11
9277.98
 21
14147.32
  0
LINE
  8
L-1-1
 10
9125.69
 20
13651.11
 11
9266.04
 21
14140.43
  0
LINE
  8
L-1-1
 10
9147.51
 20
13618.40
 11
9292.18
 21
14122.74
  0
LINE
  8
L-1-1
 10
9553.03
 20
12916.01
 11
9697.60
 21
13420.54
  0
LINE
  8
L-1-1
 10
9656.51
 20
13491.70
 11
9147.51
 21
13618.40
  0
LINE
  8
L-1-1
 10
9676.50
 20
13455.81
 11
9164.93
 21
13583.15
  0
LINE
  8
L-1-1
 10
9531.20
 20
12948.74
 11
9676.50
 21
13455.81
  0
LINE
  8
L-1-1
 10
8821.34
 20
14183.90
 11
9145.44
 21
14371.02
  0
LINE
  8
L-1-1
 10
8835.54
 20
14157.46
 11
9161.28
 21
14345.53
  0
LINE
  8
L-1-1
 10
10467.35
 20
12087.29
 11
9958.56
 21
12213.62
  0
LINE
  8
L-1-1
 10
10487.32
 20
12051.42
 11
9975.96
 21
12178.39
  0
LINE
  8
L-1-1
 10
9958.56
 20
12213.62
 11
10103.02
 21
12718.33
  0
LINE
  8
L-1-1
 10
10061.93
 20
12789.49
 11
9553.03
 21
12916.01
  0
LINE
  8
L-1-1
 10
10081.91
 20
12753.61
 11
9570.44
 21
12880.77
  0
LINE
  8
L-1-1
 10
9936.72
 20
12246.36
 11
10081.91
 21
12753.61
  0
LINE
  8
L-1-1
 10
20409.34
 20
18809.32
 11
6458.38
 21
18809.32
  0
LINE
  8
L-1-1
 10
3540.83
 20
5412.43
 11
3540.83
 21
5562.43
  0
LINE
  8
L-1-1
 10
3540.83
 20
5562.43
 11
3490.83
 21
5562.43
  0
LINE
  8
L-1-1
 10
3490.83
 20
5562.43
 11
3490.83
 21
5412.43
  0
LINE
  8
L-1-1
 10
3490.83
 20
5412.43
 11
3540.83
 21
5412.43
  0
LINE
  8
L-1-1
 10
4250.83
 20
5412.43
 11
4250.83
 21
5562.43
  0
LINE
  8
L-1-1
 10
4250.83
 20
5562.43
 11
4200.83
 21
5562.43
  0
LINE
  8
L-1-1
 10
4200.83
 20
5562.43
 11
4200.83
 21
5412.43
  0
LINE
  8
L-1-1
 10
4200.83
 20
5412.43
 11
4250.83
 21
5412.43
  0
LINE
  8
L-1-1
 10
3515.83
 20
5629.36
 11
3515.83
 21
5345.50
  0
LINE
  8
L-1-1
 10
4225.83
 20
5640.67
 11
4225.83
 21
5334.19
  0
LINE
  8
L-1-1
 10
3646.50
 20
8787.43
 11
3695.16
 21
8787.43
  0
LINE
  8
L-1-1
 10
4046.50
 20
8787.43
 11
4095.16
 21
8787.43
  0
LINE
  8
L-1-1
 10
3495.02
 20
5562.43
 11
3646.50
 21
8787.43
  0
LINE
  8
L-1-1
 10
4246.63
 20
5562.43
 11
4095.16
 21
8787.43
  0
LINE
  8
L-1-1
 10
4200.83
 20
5501.76
 11
4046.50
 21
8787.43
  0
LINE
  8
L-1-1
 10
3540.83
 20
5501.76
 11
3695.16
 21
8787.43
  0
LINE
  8
L-1-1
 10
3584.82
 20
6462.73
 11
4156.83
 21
6462.73
  0
LINE
  8
L-1-1
 10
3584.82
 20
6414.13
 11
4156.83
 21
6414.13
  0
LINE
  8
L-1-1
 10
3690.74
 20
8717.73
 11
4050.92
 21
8717.73
  0
LINE
  8
L-1-1
 10
3690.74
 20
8669.13
 11
4050.92
 21
8669.13
  0
LINE
  8
L-1-1
 10
3637.78
 20
6462.73
 11
4134.22
 21
6919.97
  0
LINE
  8
L-1-1
 10
3586.02
 20
6464.01
 11
4105.41
 21
6942.39
  0
LINE
  8
L-1-1
 10
4131.99
 20
6967.26
 11
3656.64
 21
7343.20
  0
LINE
  8
L-1-1
 10
4096.13
 20
7730.76
 11
3688.70
 21
8155.12
  0
LINE
  8
L-1-1
 10
3628.44
 20
7366.95
 11
4070.49
 21
7705.48
  0
LINE
  8
L-1-1
 10
3666.93
 20
8186.59
 11
4011.45
 21
8669.13
  0
LINE
  8
L-1-1
 10
3667.92
 20
8126.01
 11
4052.28
 21
8664.36
  0
LINE
  8
L-1-1
 10
4095.86
 20
7679.06
 11
3664.21
 21
8128.65
  0
LINE
  8
L-1-1
 10
4134.04
 20
6919.75
 11
3626.29
 21
7321.30
  0
LINE
  8
L-1-1
 10
3490.83
 20
5466.93
 11
3333.33
 21
5466.93
  0
LINE
  8
L-1-1
 10
3333.33
 20
5507.93
 11
3490.83
 21
5507.93
  0
LINE
  8
L-1-1
 10
4408.33
 20
5466.93
 11
4250.83
 21
5466.93
  0
LINE
  8
L-1-1
 10
4250.83
 20
5507.93
 11
4408.33
 21
5507.93
  0
LINE
  8
L-1-1
 10
3540.83
 20
5507.93
 11
4200.83
 21
5507.93
  0
LINE
  8
L-1-1
 10
4200.83
 20
5466.93
 11
3540.83
 21
5466.93
  0
LINE
  8
L-1-1
 10
3646.50
 20
8787.43
 11
3646.50
 21
18356.95
  0
LINE
  8
L-1-1
 10
4095.16
 20
8787.43
 11
4095.16
 21
18356.95
  0
LINE
  8
L-1-1
 10
3695.16
 20
14183.90
 11
4046.50
 21
14183.90
  0
LINE
  8
L-1-1
 10
3695.16
 20
15444.45
 11
4046.50
 21
15444.45
  0
LINE
  8
L-1-1
 10
3695.16
 20
16061.45
 11
4046.50
 21
16061.45
  0
LINE
  8
L-1-1
 10
3695.16
 20
16678.45
 11
4046.50
 21
16678.45
  0
LINE
  8
L-1-1
 10
3695.16
 20
17295.45
 11
4046.50
 21
17295.45
  0
LINE
  8
L-1-1
 10
3695.16
 20
17669.16
 11
4046.50
 21
17669.16
  0
LINE
  8
L-1-1
 10
3695.16
 20
17639.16
 11
4046.50
 21
17639.16
  0
LINE
  8
L-1-1
 10
3695.16
 20
17265.45
 11
4046.50
 21
17265.45
  0
LINE
  8
L-1-1
 10
3695.16
 20
16648.45
 11
4046.50
 21
16648.45
  0
LINE
  8
L-1-1
 10
3695.16
 20
16031.45
 11
4046.50
 21
16031.45
  0
LINE
  8
L-1-1
 10
3695.16
 20
15414.45
 11
4046.50
 21
15414.45
  0
LINE
  8
L-1-1
 10
4025.54
 20
13824.14
 11
3695.16
 21
14162.43
  0
LINE
  8
L-1-1
 10
4046.50
 20
13845.61
 11
3716.12
 21
14183.90
  0
LINE
  8
L-1-1
 10
3716.12
 20
13464.37
 11
4046.50
 21
13802.67
  0
LINE
  8
L-1-1
 10
4025.54
 20
13104.61
 11
3695.16
 21
13442.90
  0
LINE
  8
L-1-1
 10
3695.16
 20
13485.84
 11
4025.54
 21
13824.14
  0
LINE
  8
L-1-1
 10
3716.12
 20
12744.84
 11
4046.50
 21
13083.14
  0
LINE
  8
L-1-1
 10
4046.50
 20
13126.08
 11
3716.12
 21
13464.37
  0
LINE
  8
L-1-1
 10
4025.54
 20
12385.08
 11
3695.16
 21
12723.37
  0
LINE
  8
L-1-1
 10
3695.16
 20
12766.31
 11
4025.54
 21
13104.61
  0
LINE
  8
L-1-1
 10
3716.12
 20
12025.31
 11
4046.50
 21
12363.61
  0
LINE
  8
L-1-1
 10
4046.50
 20
12406.55
 11
3716.12
 21
12744.84
  0
LINE
  8
L-1-1
 10
4025.54
 20
11665.55
 11
3695.16
 21
12003.84
  0
LINE
  8
L-1-1
 10
3695.16
 20
12046.78
 11
4025.54
 21
12385.08
  0
LINE
  8
L-1-1
 10
4046.50
 20
11687.02
 11
3716.12
 21
12025.31
  0
LINE
  8
L-1-1
 10
3716.12
 20
11305.78
 11
4046.50
 21
11644.08
  0
LINE
  8
L-1-1
 10
4025.54
 20
10946.02
 11
3695.16
 21
11284.31
  0
LINE
  8
L-1-1
 10
3695.16
 20
11327.25
 11
4025.54
 21
11665.55
  0
LINE
  8
L-1-1
 10
3716.12
 20
10586.25
 11
4046.50
 21
10924.55
  0
LINE
  8
L-1-1
 10
4046.50
 20
10967.49
 11
3716.12
 21
11305.78
  0
LINE
  8
L-1-1
 10
4025.54
 20
10226.49
 11
3695.16
 21
10564.78
  0
LINE
  8
L-1-1
 10
3695.16
 20
10607.72
 11
4025.54
 21
10946.02
  0
LINE
  8
L-1-1
 10
4046.50
 20
10247.96
 11
3716.12
 21
10586.25
  0
LINE
  8
L-1-1
 10
3716.12
 20
9866.72
 11
4046.50
 21
10205.02
  0
LINE
  8
L-1-1
 10
3695.16
 20
9888.19
 11
4025.54
 21
10226.49
  0
LINE
  8
L-1-1
 10
4046.50
 20
9528.43
 11
3716.12
 21
9866.72
  0
LINE
  8
L-1-1
 10
3695.16
 20
8834.32
 11
4046.50
 21
8834.32
  0
LINE
  8
L-1-1
 10
4046.50
 20
8808.90
 11
4021.68
 21
8834.32
  0
LINE
  8
L-1-1
 10
4047.56
 20
8764.88
 11
3979.75
 21
8834.32
  0
LINE
  8
L-1-1
 10
3796.23
 20
8834.32
 11
3689.22
 21
9505.42
  0
LINE
  8
L-1-1
 10
3915.88
 20
8899.71
 11
3760.42
 21
9058.90
  0
LINE
  8
L-1-1
 10
3957.81
 20
8899.71
 11
3752.24
 21
9110.22
  0
LINE
  8
L-1-1
 10
3695.16
 20
9468.18
 11
3695.16
 21
18356.95
  0
LINE
  8
L-1-1
 10
3945.43
 20
8834.32
 11
4052.44
 21
9505.42
  0
LINE
  8
L-1-1
 10
3785.80
 20
8899.71
 11
3957.81
 21
8899.71
  0
LINE
  8
L-1-1
 10
4046.50
 20
9468.18
 11
4046.50
 21
18356.95
  0
LINE
  8
L-1-1
 10
4025.54
 20
9506.96
 11
3695.16
 21
9845.26
  0
LINE
  8
L-1-1
 10
4094.93
 20
9498.65
 11
4052.44
 21
9505.42
  0
LINE
  8
L-1-1
 10
3646.73
 20
9498.65
 11
3689.22
 21
9505.42
  0
LINE
  8
L-1-1
 10
3695.16
 20
8787.43
 11
3695.16
 21
9194.97
  0
LINE
  8
L-1-1
 10
3695.16
 20
9168.66
 11
3698.76
 21
9172.36
  0
LINE
  8
L-1-1
 10
4046.50
 20
8787.43
 11
4046.50
 21
9194.97
  0
LINE
  8
L-1-1
 10
4032.54
 20
9380.65
 11
3709.11
 21
9380.65
  0
LINE
  8
L-1-1
 10
4039.39
 20
9423.58
 11
3702.27
 21
9423.58
  0
LINE
  8
L-1-1
 10
3708.35
 20
9112.21
 11
3695.16
 21
9125.73
  0
LINE
  8
L-1-1
 10
3752.66
 20
8834.32
 11
3646.73
 21
9498.65
  0
LINE
  8
L-1-1
 10
3695.16
 20
8899.71
 11
3742.24
 21
8899.71
  0
LINE
  8
L-1-1
 10
3999.42
 20
8899.71
 11
4046.50
 21
8899.71
  0
LINE
  8
L-1-1
 10
3988.99
 20
8834.32
 11
4094.93
 21
9498.65
  0
LINE
  8
L-1-1
 10
3742.10
 20
9173.79
 11
3944.11
 21
9380.65
  0
LINE
  8
L-1-1
 10
3986.04
 20
9423.58
 11
4046.50
 21
9485.49
  0
LINE
  8
L-1-1
 10
3736.21
 20
9210.70
 11
3902.18
 21
9380.65
  0
LINE
  8
L-1-1
 10
3944.11
 20
9423.58
 11
4025.54
 21
9506.96
  0
LINE
  8
L-1-1
 10
3646.50
 20
18356.95
 11
3695.16
 21
18356.95
  0
LINE
  8
L-1-1
 10
4046.50
 20
18356.95
 11
4095.16
 21
18356.95
  0
LINE
  8
L-1-1
 10
3796.05
 20
18233.86
 11
3695.16
 21
17806.57
  0
LINE
  8
L-1-1
 10
3945.60
 20
18233.86
 11
4046.50
 21
17806.57
  0
LINE
  8
L-1-1
 10
8854.02
 20
14123.05
 11
6574.97
 21
18278.71
  0
LINE
  8
L-1-1
 10
8819.37
 20
14103.04
 11
6540.33
 21
18258.71
  0
LINE
  8
L-1-1
 10
6540.33
 20
18258.71
 11
6574.97
 21
18278.71
  0
LINE
  8
L-1-1
 10
9181.85
 20
14312.45
 11
6711.51
 21
18357.00
  0
LINE
  8
L-1-1
 10
9216.49
 20
14332.45
 11
6746.16
 21
18377.01
  0
LINE
  8
L-1-1
 10
6711.51
 20
18357.00
 11
6746.16
 21
18377.01
  0
LINE
  8
L-1-1
 10
8670.77
 20
14510.31
 11
8851.80
 21
14852.82
  0
LINE
  8
L-1-1
 10
9107.18
 20
14434.70
 11
8670.77
 21
14510.31
  0
LINE
  8
L-1-1
 10
8795.05
 20
14945.73
 11
8382.41
 21
14982.99
  0
LINE
  8
L-1-1
 10
8775.58
 20
14977.61
 11
8365.03
 21
15014.68
  0
LINE
  8
L-1-1
 10
8639.19
 20
14514.76
 11
8833.61
 21
14882.60
  0
LINE
  8
L-1-1
 10
9127.98
 20
14400.65
 11
8657.02
 21
14482.25
  0
LINE
  8
L-1-1
 10
8479.60
 20
15462.21
 11
8312.06
 21
15111.26
  0
LINE
  8
L-1-1
 10
8460.94
 20
15492.76
 11
8294.29
 21
15143.66
  0
LINE
  8
L-1-1
 10
8356.39
 20
15663.93
 11
7952.74
 21
15766.46
  0
LINE
  8
L-1-1
 10
8378.76
 20
15627.30
 11
7972.46
 21
15730.50
  0
LINE
  8
L-1-1
 10
8147.40
 20
15411.51
 11
8415.88
 21
15566.52
  0
LINE
  8
L-1-1
 10
8132.97
 20
15437.82
 11
8400.24
 21
15592.13
  0
LINE
  8
L-1-1
 10
8059.30
 20
16150.35
 11
7926.52
 21
15814.26
  0
LINE
  8
L-1-1
 10
8078.88
 20
16118.28
 11
7945.27
 21
15780.07
  0
LINE
  8
L-1-1
 10
7641.90
 20
16333.26
 11
7988.04
 21
16267.01
  0
LINE
  8
L-1-1
 10
7660.61
 20
16299.13
 11
8009.16
 21
16232.43
  0
LINE
  8
L-1-1
 10
7796.29
 20
16051.73
 11
8035.26
 21
16189.70
  0
LINE
  8
L-1-1
 10
7734.85
 20
16681.54
 11
7604.30
 21
16401.81
  0
LINE
  8
L-1-1
 10
7716.09
 20
16712.27
 11
7586.42
 21
16434.42
  0
LINE
  8
L-1-1
 10
7810.72
 20
16025.42
 11
8050.90
 21
16164.09
  0
LINE
  8
L-1-1
 10
7307.99
 20
16942.11
 11
7612.76
 21
16881.43
  0
LINE
  8
L-1-1
 10
7326.82
 20
16907.77
 11
7634.03
 21
16846.61
  0
LINE
  8
L-1-1
 10
7474.04
 20
16639.33
 11
7685.92
 21
16761.66
  0
LINE
  8
L-1-1
 10
7459.61
 20
16665.64
 11
7670.28
 21
16787.27
  0
LINE
  8
L-1-1
 10
7358.40
 20
17297.88
 11
7244.71
 21
17057.50
  0
LINE
  8
L-1-1
 10
7377.11
 20
17267.26
 11
7262.53
 21
17025.01
  0
LINE
  8
L-1-1
 10
7137.36
 20
17253.24
 11
7320.94
 21
17359.23
  0
LINE
  8
L-1-1
 10
7122.93
 20
17279.55
 11
7305.29
 21
17384.84
  0
LINE
  8
L-1-1
 10
6933.45
 20
17625.07
 11
7099.88
 21
17721.16
  0
LINE
  8
L-1-1
 10
6919.02
 20
17651.38
 11
7084.23
 21
17746.77
  0
CIRCLE
  8
L-1-1
 10
6458.38
 20
18733.80
 40
75.51
  0
CIRCLE
  8
L-1-1
 10
6458.38
 20
18733.80
 40
35.47
  0
CIRCLE
  8
L-1-1
 10
6458.38
 20
18733.80
 40
120.45
  0
LINE
  8
L-1-1
 10
3796.05
 20
18233.86
 11
3796.05
 21
18733.80
  0
LINE
  8
L-1-1
 10
3945.60
 20
18233.86
 11
3945.60
 21
18733.80
  0
LINE
  8
L-1-1
 10
3811.01
 20
18809.32
 11
3855.87
 21
18809.32
  0
LINE
  8
L-1-1
 10
3885.78
 20
18809.32
 11
3930.65
 21
18809.32
  0
LINE
  8
L-1-1
 10
3930.65
 20
18658.29
 11
3930.65
 21
18809.32
  0
LINE
  8
L-1-1
 10
3885.78
 20
18658.29
 11
3885.78
 21
18809.32
  0
LINE
  8
L-1-1
 10
3811.01
 20
18658.29
 11
3811.01
 21
18809.32
  0
LINE
  8
L-1-1
 10
3855.87
 20
18658.29
 11
3855.87
 21
18809.32
  0
LINE
  8
L-1-1
 10
3811.01
 20
18658.29
 11
3855.87
 21
18658.29
  0
LINE
  8
L-1-1
 10
3885.78
 20
18658.29
 11
3930.65
 21
18658.29
  0
LINE
  8
L-1-1
 10
3670.45
 20
18356.95
 11
3670.45
 21
18854.26
  0
LINE
  8
L-1-1
 10
3670.45
 20
18854.26
 11
3621.79
 21
18854.26
  0
LINE
  8
L-1-1
 10
3621.79
 20
18854.26
 11
3621.79
 21
18356.95
  0
LINE
  8
L-1-1
 10
3621.79
 20
18356.95
 11
3670.45
 21
18356.95
  0
LINE
  8
L-1-1
 10
4071.21
 20
18356.95
 11
4071.21
 21
18854.26
  0
LINE
  8
L-1-1
 10
4071.21
 20
18854.26
 11
4119.87
 21
18854.26
  0
LINE
  8
L-1-1
 10
4119.87
 20
18854.26
 11
4119.87
 21
18356.95
  0
LINE
  8
L-1-1
 10
4119.87
 20
18356.95
 11
4071.21
 21
18356.95
  0
LINE
  8
L-1-1
 10
4071.21
 20
18854.26
 11
3670.45
 21
18854.26
  0
LINE
  8
L-1-1
 10
6396.27
 20
18690.86
 11
10073.79
 21
4415.42
  0
ARC
  8
L-1-1
 10
3870.83
 20
6809.32
 40
865.00
 50
139.99
 51
220.01
  0
ARC
  8
L-1-1
 10
3870.83
 20
6809.32
 40
865.00
 50
319.99
 51
40.01
  0
LINE
  8
L-1-1
 10
3626.94
 20
7320.46
 11
3996.72
 21
7603.64
  0
LINE
  8
L-1-1
 10
3996.72
 20
7603.64
 11
4098.44
 21
7681.55
  0
LINE
  8
L-1-1
 10
4408.33
 20
7340.47
 11
4155.87
 21
7494.88
  0
LINE
  8
L-1-1
 10
4105.77
 20
7525.52
 11
3988.43
 21
7597.29
  0
LINE
  8
L-1-1
 10
4408.33
 20
7352.32
 11
4155.31
 21
7506.81
  0
LINE
  8
L-1-1
 10
4105.22
 20
7537.39
 11
3996.72
 21
7603.64
  0
LINE
  8
L-1-1
 10
4408.33
 20
7364.16
 11
4154.75
 21
7518.71
  0
LINE
  8
L-1-1
 10
4104.66
 20
7549.24
 11
4004.99
 21
7609.98
  0
LINE
  8
L-1-1
 10
3333.33
 20
7364.16
 11
3587.23
 21
7525.46
  0
LINE
  8
L-1-1
 10
3637.38
 20
7557.32
 11
3739.68
 21
7622.32
  0
LINE
  8
L-1-1
 10
3333.33
 20
7340.47
 11
3586.08
 21
7501.04
  0
LINE
  8
L-1-1
 10
3636.23
 20
7532.90
 11
3776.98
 21
7622.32
  0
LINE
  8
L-1-1
 10
3333.33
 20
7352.32
 11
3586.65
 21
7513.25
  0
LINE
  8
L-1-1
 10
3636.80
 20
7545.11
 11
3758.33
 21
7622.32
  0
LINE
  8
L-1-1
 10
3796.05
 20
18733.80
 11
3811.01
 21
18733.80
  0
LINE
  8
L-1-1
 10
3855.87
 20
18733.80
 11
3885.78
 21
18733.80
  0
LINE
  8
L-1-1
 10
3930.65
 20
18733.80
 11
3945.60
 21
18733.80
  0
LINE
  8
L-1-1
 10
3870.83
 20
5447.90
 11
3870.83
 21
19241.15
  0
LINE
  8
L-1-1
 10
13681.85
 20
4144.32
 11
13681.85
 21
3547.43
  0
LINE
  8
L-1-1
 10
14131.85
 20
3547.43
 11
14131.85
 21
4144.32
  0
LINE
  8
L-1-1
 10
14131.85
 20
3587.43
 11
13681.85
 21
3587.43
  0
LINE
  8
L-1-1
 10
14131.85
 20
3587.43
 11
14051.85
 21
3608.86
  0
LINE
  8
L-1-1
 10
14131.85
 20
3587.43
 11
14051.85
 21
3565.99
  0
LINE
  8
L-1-1
 10
13681.85
 20
3587.43
 11
13761.85
 21
3565.99
  0
LINE
  8
L-1-1
 10
13681.85
 20
3587.43
 11
13761.85
 21
3608.86
  0
LINE
  8
L-1-1
 10
13231.85
 20
4144.32
 11
13231.85
 21
3547.43
  0
LINE
  8
L-1-1
 10
13681.85
 20
3547.43
 11
13681.85
 21
4144.32
  0
LINE
  8
L-1-1
 10
13681.85
 20
3587.43
 11
13231.85
 21
3587.43
  0
LINE
  8
L-1-1
 10
13681.85
 20
3587.43
 11
13601.85
 21
3608.86
  0
LINE
  8
L-1-1
 10
13681.85
 20
3587.43
 11
13601.85
 21
3565.99
  0
LINE
  8
L-1-1
 10
13231.85
 20
3587.43
 11
13311.85
 21
3565.99
  0
LINE
  8
L-1-1
 10
13231.85
 20
3587.43
 11
13311.85
 21
3608.86
  0
LINE
  8
L-1-1
 10
14131.85
 20
3547.42
 11
14131.85
 21
3224.03
  0
LINE
  8
L-1-1
 10
13231.85
 20
3224.03
 11
13231.85
 21
3547.42
  0
LINE
  8
L-1-1
 10
13231.85
 20
3264.03
 11
14131.85
 21
3264.03
  0
LINE
  8
L-1-1
 10
13231.85
 20
3264.03
 11
13311.85
 21
3242.60
  0
LINE
  8
L-1-1
 10
13231.85
 20
3264.03
 11
13311.85
 21
3285.47
  0
LINE
  8
L-1-1
 10
14131.85
 20
3264.03
 11
14051.85
 21
3285.47
  0
LINE
  8
L-1-1
 10
14131.85
 20
3264.03
 11
14051.85
 21
3242.60
  0
LINE
  8
L-1-1
 10
10188.38
 20
4144.32
 11
10188.38
 21
2724.51
  0
LINE
  8
L-1-1
 10
14058.38
 20
2724.51
 11
14058.38
 21
4144.32
  0
LINE
  8
L-1-1
 10
14058.38
 20
2764.51
 11
10188.38
 21
2764.51
  0
LINE
  8
L-1-1
 10
14058.38
 20
2764.51
 11
13978.38
 21
2785.95
  0
LINE
  8
L-1-1
 10
14058.38
 20
2764.51
 11
13978.38
 21
2743.08
  0
LINE
  8
L-1-1
 10
10188.38
 20
2764.51
 11
10268.38
 21
2743.08
  0
LINE
  8
L-1-1
 10
10188.38
 20
2764.51
 11
10268.38
 21
2785.95
  0
LINE
  8
L-1-1
 10
4533.33
 20
4144.32
 11
4533.33
 21
3775.16
  0
LINE
  8
L-1-1
 10
3208.33
 20
3775.16
 11
3208.33
 21
4144.32
  0
LINE
  8
L-1-1
 10
3208.33
 20
3815.16
 11
4533.33
 21
3815.16
  0
LINE
  8
L-1-1
 10
3208.33
 20
3815.16
 11
3288.33
 21
3793.73
  0
LINE
  8
L-1-1
 10
3208.33
 20
3815.16
 11
3288.33
 21
3836.60
  0
LINE
  8
L-1-1
 10
4533.33
 20
3815.16
 11
4453.33
 21
3836.60
  0
LINE
  8
L-1-1
 10
4533.33
 20
3815.16
 11
4453.33
 21
3793.73
  0
LINE
  8
L-1-1
 10
5179.47
 20
6809.32
 11
5219.47
 21
6809.32
  0
LINE
  8
L-1-1
 10
5219.47
 20
4184.32
 11
4573.33
 21
4184.32
  0
LINE
  8
L-1-1
 10
5179.47
 20
4184.32
 11
5179.47
 21
6809.32
  0
LINE
  8
L-1-1
 10
5179.47
 20
4184.32
 11
5200.90
 21
4264.32
  0
LINE
  8
L-1-1
 10
5179.47
 20
4184.32
 11
5158.03
 21
4264.32
  0
LINE
  8
L-1-1
 10
5179.47
 20
6809.32
 11
5158.03
 21
6729.32
  0
LINE
  8
L-1-1
 10
5179.47
 20
6809.32
 11
5200.90
 21
6729.32
  0
LINE
  8
L-1-1
 10
4573.33
 20
7752.32
 11
5219.47
 21
7752.32
  0
LINE
  8
L-1-1
 10
5219.47
 20
6809.32
 11
5179.47
 21
6809.32
  0
LINE
  8
L-1-1
 10
5179.47
 20
6809.32
 11
5179.47
 21
7752.32
  0
LINE
  8
L-1-1
 10
5179.47
 20
6809.32
 11
5200.90
 21
6889.32
  0
LINE
  8
L-1-1
 10
5179.47
 20
6809.32
 11
5158.03
 21
6889.32
  0
LINE
  8
L-1-1
 10
5179.47
 20
7752.32
 11
5158.03
 21
7672.32
  0
LINE
  8
L-1-1
 10
5179.47
 20
7752.32
 11
5200.90
 21
7672.32
  0
LINE
  8
L-1-1
 10
18928.96
 20
13902.93
 11
17312.59
 21
12286.56
  0
LINE
  8
L-1-1
 10
19080.36
 20
10518.80
 11
20696.73
 21
12135.16
  0
LINE
  8
L-1-1
 10
19108.64
 20
10547.08
 11
17340.88
 21
12314.85
  0
LINE
  8
L-1-1
 10
19108.64
 20
10547.08
 11
19067.23
 21
10618.81
  0
LINE
  8
L-1-1
 10
19108.64
 20
10547.08
 11
19036.92
 21
10588.49
  0
LINE
  8
L-1-1
 10
17340.88
 20
12314.85
 11
17382.29
 21
12243.12
  0
LINE
  8
L-1-1
 10
17340.88
 20
12314.85
 11
17412.60
 21
12273.44
  0
LINE
  8
L-1-1
 10
18966.44
 20
13798.99
 11
17740.89
 21
12573.44
  0
LINE
  8
L-1-1
 10
19367.24
 20
10947.10
 11
20592.78
 21
12172.64
  0
LINE
  8
L-1-1
 10
19395.52
 20
10975.38
 11
17769.18
 21
12601.73
  0
LINE
  8
L-1-1
 10
19395.52
 20
10975.38
 11
19354.11
 21
11047.11
  0
LINE
  8
L-1-1
 10
19395.52
 20
10975.38
 11
19323.80
 21
11016.79
  0
LINE
  8
L-1-1
 10
17769.18
 20
12601.73
 11
17810.59
 21
12530.00
  0
LINE
  8
L-1-1
 10
17769.18
 20
12601.73
 11
17840.90
 21
12560.32
  0
LINE
  8
L-1-1
 10
20753.29
 20
12135.16
 11
21151.08
 21
11737.38
  0
LINE
  8
L-1-1
 10
21353.31
 20
11939.62
 11
20955.53
 21
12337.40
  0
LINE
  8
L-1-1
 10
21325.02
 20
11967.90
 11
20817.37
 21
11460.25
  0
LINE
  8
L-1-1
 10
21325.02
 20
11967.90
 11
21253.30
 21
11926.49
  0
LINE
  8
L-1-1
 10
21325.02
 20
11967.90
 11
21283.61
 21
11896.17
  0
LINE
  8
L-1-1
 10
21122.79
 20
11765.67
 11
21194.52
 21
11807.08
  0
LINE
  8
L-1-1
 10
21122.79
 20
11765.67
 11
21164.20
 21
11837.39
  0
LINE
  8
L-1-1
 10
19676.58
 20
5384.29
 11
19356.07
 21
5384.29
  0
LINE
  8
L-1-1
 10
19356.07
 20
4584.29
 11
19676.58
 21
4584.29
  0
LINE
  8
L-1-1
 10
19396.07
 20
4584.29
 11
19396.07
 21
5384.29
  0
LINE
  8
L-1-1
 10
19396.07
 20
4584.29
 11
19417.50
 21
4664.29
  0
LINE
  8
L-1-1
 10
19396.07
 20
4584.29
 11
19374.63
 21
4664.29
  0
LINE
  8
L-1-1
 10
19396.07
 20
5384.29
 11
19374.63
 21
5304.29
  0
LINE
  8
L-1-1
 10
19396.07
 20
5384.29
 11
19417.50
 21
5304.29
  0
LINE
  8
L-1-1
 10
20516.58
 20
4544.29
 11
20516.58
 21
4159.98
  0
LINE
  8
L-1-1
 10
19716.58
 20
4159.98
 11
19716.58
 21
4544.29
  0
LINE
  8
L-1-1
 10
19716.58
 20
4199.98
 11
20516.58
 21
4199.98
  0
LINE
  8
L-1-1
 10
19716.58
 20
4199.98
 11
19796.58
 21
4178.54
  0
LINE
  8
L-1-1
 10
19716.58
 20
4199.98
 11
19796.58
 21
4221.41
  0
LINE
  8
L-1-1
 10
20516.58
 20
4199.98
 11
20436.58
 21
4221.41
  0
LINE
  8
L-1-1
 10
20516.58
 20
4199.98
 11
20436.58
 21
4178.54
  0
LINE
  8
L-1-1
 10
19046.96
 20
5966.86
 11
19959.83
 21
7739.34
  0
LINE
  8
L-1-1
 10
19534.05
 20
5966.86
 11
20446.92
 21
7739.34
  0
LINE
  8
L-1-1
 10
31194.20
 20
6809.32
 11
13826.27
 21
6809.32
  0
LINE
  8
L-1-1
 10
5248.58
 20
6809.32
 11
2860.29
 21
6809.32
  0
LINE
  8
L-1-1
 10
4599.63
 20
5487.43
 11
3113.78
 21
5487.43
  0
LINE
  8
L-1-1
 10
3662.73
 20
4828.02
 11
3662.73
 21
4640.61
  0
LINE
  8
L-1-1
 10
3547.14
 20
4828.02
 11
3547.14
 21
4640.61
  0
LINE
  8
L-1-1
 10
3441.21
 20
4814.63
 11
3538.84
 21
4814.63
  0
LINE
  8
L-1-1
 10
3441.21
 20
4801.25
 11
3538.84
 21
4801.25
  0
LINE
  8
L-1-1
 10
3441.21
 20
4787.86
 11
3538.84
 21
4787.86
  0
LINE
  8
L-1-1
 10
3441.21
 20
4774.47
 11
3538.84
 21
4774.47
  0
LINE
  8
L-1-1
 10
3441.21
 20
4761.09
 11
3538.84
 21
4761.09
  0
LINE
  8
L-1-1
 10
3441.21
 20
4747.70
 11
3538.84
 21
4747.70
  0
LINE
  8
L-1-1
 10
3441.21
 20
4720.93
 11
3538.84
 21
4720.93
  0
LINE
  8
L-1-1
 10
3441.21
 20
4707.54
 11
3538.84
 21
4707.54
  0
LINE
  8
L-1-1
 10
3441.21
 20
4694.16
 11
3538.84
 21
4694.16
  0
LINE
  8
L-1-1
 10
3441.21
 20
4680.77
 11
3538.84
 21
4680.77
  0
LINE
  8
L-1-1
 10
3441.21
 20
4667.38
 11
3538.84
 21
4667.38
  0
LINE
  8
L-1-1
 10
3441.21
 20
4654.00
 11
3538.84
 21
4654.00
  0
LINE
  8
L-1-1
 10
3556.81
 20
4720.93
 11
3654.43
 21
4720.93
  0
LINE
  8
L-1-1
 10
3556.81
 20
4707.54
 11
3654.43
 21
4707.54
  0
LINE
  8
L-1-1
 10
3556.81
 20
4694.16
 11
3654.43
 21
4694.16
  0
LINE
  8
L-1-1
 10
3556.81
 20
4680.77
 11
3654.43
 21
4680.77
  0
LINE
  8
L-1-1
 10
3556.81
 20
4667.38
 11
3654.43
 21
4667.38
  0
LINE
  8
L-1-1
 10
3556.81
 20
4654.00
 11
3654.43
 21
4654.00
  0
LINE
  8
L-1-1
 10
3556.81
 20
4814.63
 11
3654.43
 21
4814.63
  0
LINE
  8
L-1-1
 10
3556.81
 20
4801.25
 11
3654.43
 21
4801.25
  0
LINE
  8
L-1-1
 10
3556.81
 20
4787.86
 11
3654.43
 21
4787.86
  0
LINE
  8
L-1-1
 10
3556.81
 20
4774.47
 11
3654.43
 21
4774.47
  0
LINE
  8
L-1-1
 10
3556.81
 20
4761.09
 11
3654.43
 21
4761.09
  0
LINE
  8
L-1-1
 10
3556.81
 20
4747.70
 11
3654.43
 21
4747.70
  0
LINE
  8
L-1-1
 10
3672.40
 20
4720.93
 11
3770.03
 21
4720.93
  0
LINE
  8
L-1-1
 10
3672.40
 20
4707.54
 11
3770.03
 21
4707.54
  0
LINE
  8
L-1-1
 10
3672.40
 20
4694.16
 11
3770.03
 21
4694.16
  0
LINE
  8
L-1-1
 10
3672.40
 20
4680.77
 11
3770.03
 21
4680.77
  0
LINE
  8
L-1-1
 10
3672.40
 20
4667.38
 11
3770.03
 21
4667.38
  0
LINE
  8
L-1-1
 10
3672.40
 20
4654.00
 11
3770.03
 21
4654.00
  0
LINE
  8
L-1-1
 10
3672.40
 20
4814.63
 11
3770.03
 21
4814.63
  0
LINE
  8
L-1-1
 10
3672.40
 20
4801.25
 11
3770.03
 21
4801.25
  0
LINE
  8
L-1-1
 10
3672.40
 20
4787.86
 11
3770.03
 21
4787.86
  0
LINE
  8
L-1-1
 10
3672.40
 20
4774.47
 11
3770.03
 21
4774.47
  0
LINE
  8
L-1-1
 10
3672.40
 20
4761.09
 11
3770.03
 21
4761.09
  0
LINE
  8
L-1-1
 10
3672.40
 20
4747.70
 11
3770.03
 21
4747.70
  0
LINE
  8
L-1-1
 10
3132.14
 20
4734.32
 11
4653.99
 21
4734.32
  0
LINE
  8
L-1-1
 10
4078.92
 20
5253.02
 11
4078.92
 21
5065.61
  0
LINE
  8
L-1-1
 10
4194.52
 20
5253.02
 11
4194.52
 21
5065.61
  0
LINE
  8
L-1-1
 10
4300.44
 20
5239.63
 11
4202.82
 21
5239.63
  0
LINE
  8
L-1-1
 10
4300.44
 20
5226.25
 11
4202.82
 21
5226.25
  0
LINE
  8
L-1-1
 10
4300.44
 20
5212.86
 11
4202.82
 21
5212.86
  0
LINE
  8
L-1-1
 10
4300.44
 20
5199.47
 11
4202.82
 21
5199.47
  0
LINE
  8
L-1-1
 10
4300.44
 20
5186.09
 11
4202.82
 21
5186.09
  0
LINE
  8
L-1-1
 10
4300.44
 20
5172.70
 11
4202.82
 21
5172.70
  0
LINE
  8
L-1-1
 10
4300.44
 20
5145.93
 11
4202.82
 21
5145.93
  0
LINE
  8
L-1-1
 10
4300.44
 20
5132.54
 11
4202.82
 21
5132.54
  0
LINE
  8
L-1-1
 10
4300.44
 20
5119.16
 11
4202.82
 21
5119.16
  0
LINE
  8
L-1-1
 10
4300.44
 20
5105.77
 11
4202.82
 21
5105.77
  0
LINE
  8
L-1-1
 10
4300.44
 20
5092.38
 11
4202.82
 21
5092.38
  0
LINE
  8
L-1-1
 10
4300.44
 20
5079.00
 11
4202.82
 21
5079.00
  0
LINE
  8
L-1-1
 10
4184.85
 20
5145.93
 11
4087.23
 21
5145.93
  0
LINE
  8
L-1-1
 10
4184.85
 20
5132.54
 11
4087.23
 21
5132.54
  0
LINE
  8
L-1-1
 10
4184.85
 20
5119.16
 11
4087.23
 21
5119.16
  0
LINE
  8
L-1-1
 10
4184.85
 20
5105.77
 11
4087.23
 21
5105.77
  0
LINE
  8
L-1-1
 10
4184.85
 20
5092.38
 11
4087.23
 21
5092.38
  0
LINE
  8
L-1-1
 10
4184.85
 20
5079.00
 11
4087.23
 21
5079.00
  0
LINE
  8
L-1-1
 10
4184.85
 20
5239.63
 11
4087.23
 21
5239.63
  0
LINE
  8
L-1-1
 10
4184.85
 20
5226.25
 11
4087.23
 21
5226.25
  0
LINE
  8
L-1-1
 10
4184.85
 20
5212.86
 11
4087.23
 21
5212.86
  0
LINE
  8
L-1-1
 10
4184.85
 20
5199.47
 11
4087.23
 21
5199.47
  0
LINE
  8
L-1-1
 10
4184.85
 20
5186.09
 11
4087.23
 21
5186.09
  0
LINE
  8
L-1-1
 10
4184.85
 20
5172.70
 11
4087.23
 21
5172.70
  0
LINE
  8
L-1-1
 10
4069.26
 20
5145.93
 11
3971.63
 21
5145.93
  0
LINE
  8
L-1-1
 10
4069.26
 20
5132.54
 11
3971.63
 21
5132.54
  0
LINE
  8
L-1-1
 10
4069.26
 20
5119.16
 11
3971.63
 21
5119.16
  0
LINE
  8
L-1-1
 10
4069.26
 20
5105.77
 11
3971.63
 21
5105.77
  0
LINE
  8
L-1-1
 10
4069.26
 20
5092.38
 11
3971.63
 21
5092.38
  0
LINE
  8
L-1-1
 10
4069.26
 20
5079.00
 11
3971.63
 21
5079.00
  0
LINE
  8
L-1-1
 10
4069.26
 20
5239.63
 11
3971.63
 21
5239.63
  0
LINE
  8
L-1-1
 10
4069.26
 20
5226.25
 11
3971.63
 21
5226.25
  0
LINE
  8
L-1-1
 10
4069.26
 20
5212.86
 11
3971.63
 21
5212.86
  0
LINE
  8
L-1-1
 10
4069.26
 20
5199.47
 11
3971.63
 21
5199.47
  0
LINE
  8
L-1-1
 10
4069.26
 20
5186.09
 11
3971.63
 21
5186.09
  0
LINE
  8
L-1-1
 10
4069.26
 20
5172.70
 11
3971.63
 21
5172.70
  0
LINE
  8
L-1-1
 10
3132.14
 20
5159.32
 11
4653.99
 21
5159.32
  0
LINE
  8
L-1-1
 10
6697.37
 20
17831.65
 11
6343.64
 21
18697.16
  0
LINE
  8
L-1-1
 10
6754.40
 20
17857.23
 11
6697.37
 21
17831.65
  0
LINE
  8
L-1-1
 10
7017.75
 20
18004.24
 11
6557.21
 21
18802.67
  0
LINE
  8
L-1-1
 10
7017.75
 20
18004.24
 11
6754.40
 21
17857.23
  0
ARC
  8
L-1-1
 10
14381.85
 20
5647.89
 40
50.00
 50
90.00
 51
180.00
  0
LINE
  8
L-1-1
 10
14381.85
 20
5736.95
 11
14511.85
 21
5736.95
  0
LINE
  8
L-1-1
 10
14511.85
 20
5736.95
 11
14511.85
 21
6009.44
  0
LINE
  8
L-1-1
 10
14511.85
 20
6009.44
 11
14381.85
 21
6159.44
  0
LINE
  8
L-1-1
 10
14381.85
 20
6159.44
 11
14381.85
 21
5736.95
  0
LINE
  8
L-1-1
 10
14331.85
 20
5647.89
 11
14231.85
 21
4184.32
  0
LINE
  8
L-1-1
 10
14581.85
 20
5763.20
 11
14581.85
 21
5983.20
  0
LINE
  8
L-1-1
 10
14581.85
 20
5983.20
 11
14566.85
 21
5983.20
  0
LINE
  8
L-1-1
 10
14566.85
 20
5983.20
 11
14566.85
 21
5763.20
  0
LINE
  8
L-1-1
 10
14566.85
 20
5763.20
 11
14581.85
 21
5763.20
  0
LINE
  8
L-1-1
 10
14566.85
 20
5803.20
 11
14526.85
 21
5803.20
  0
LINE
  8
L-1-1
 10
14526.85
 20
5763.20
 11
14526.85
 21
5983.20
  0
LINE
  8
L-1-1
 10
14526.85
 20
5983.20
 11
14511.85
 21
5983.20
  0
LINE
  8
L-1-1
 10
14511.85
 20
5983.20
 11
14511.85
 21
5763.20
  0
LINE
  8
L-1-1
 10
14511.85
 20
5763.20
 11
14526.85
 21
5763.20
  0
LINE
  8
L-1-1
 10
14566.85
 20
5943.20
 11
14526.85
 21
5943.20
  0
LINE
  8
L-1-1
 10
14679.03
 20
5873.20
 11
14417.34
 21
5873.20
  0
LINE
  8
L-1-1
 10
14381.85
 20
5697.89
 11
14381.85
 21
7752.32
  0
LINE
  8
L-1-1
 10
14381.85
 20
7752.32
 11
14131.85
 21
7752.32
  0
LINE
  8
L-1-1
 10
14131.85
 20
7752.32
 11
14131.85
 21
4184.32
  0
LINE
  8
L-1-1
 10
14131.85
 20
4184.32
 11
14231.85
 21
4184.32
  0
LINE
  8
L-1-1
 10
14231.85
 20
4184.32
 11
14381.85
 21
5697.89
  0
LINE
  8
L-1-1
 10
15107.07
 20
6809.32
 11
15147.07
 21
6809.32
  0
LINE
  8
L-1-1
 10
15147.07
 20
4184.32
 11
14277.59
 21
4184.32
  0
LINE
  8
L-1-1
 10
15107.07
 20
4184.32
 11
15107.07
 21
6809.32
  0
LINE
  8
L-1-1
 10
15107.07
 20
4184.32
 11
15128.51
 21
4264.32
  0
LINE
  8
L-1-1
 10
15107.07
 20
4184.32
 11
15085.63
 21
4264.32
  0
LINE
  8
L-1-1
 10
15107.07
 20
6809.32
 11
15085.63
 21
6729.32
  0
LINE
  8
L-1-1
 10
15107.07
 20
6809.32
 11
15128.51
 21
6729.32
  0
LINE
  8
L-1-1
 10
25598.20
 20
11599.88
 11
27198.20
 21
11599.88
  0
LINE
  8
L-1-1
 10
24198.20
 20
12248.13
 11
28198.20
 21
12248.13
  0
LINE
  8
L-1-1
 10
28198.20
 20
11399.88
 11
28198.20
 21
15775.31
  0
LINE
  8
L-1-1
 10
28198.20
 20
15775.31
 11
24198.20
 21
15775.31
  0
LINE
  8
L-1-1
 10
24198.20
 20
15775.31
 11
24198.20
 21
11399.88
  0
LINE
  8
L-1-1
 10
24198.20
 20
11399.88
 11
28198.20
 21
11399.88
  0
LINE
  8
L-1-1
 10
27998.20
 20
11399.88
 11
27998.20
 21
15775.31
  0
LINE
  8
L-1-1
 10
27798.20
 20
11399.88
 11
27798.20
 21
15775.31
  0
LINE
  8
L-1-1
 10
27598.20
 20
11399.88
 11
27598.20
 21
15775.31
  0
LINE
  8
L-1-1
 10
27398.20
 20
11399.88
 11
27398.20
 21
15775.31
  0
LINE
  8
L-1-1
 10
27198.20
 20
11399.88
 11
27198.20
 21
15775.31
  0
LINE
  8
L-1-1
 10
26398.20
 20
11399.88
 11
26398.20
 21
15775.31
  0
LINE
  8
L-1-1
 10
25598.20
 20
11399.88
 11
25598.20
 21
15775.31
  0
LINE
  8
L-1-1
 10
25398.20
 20
11399.88
 11
25398.20
 21
15775.31
  0
LINE
  8
L-1-1
 10
25198.20
 20
11399.88
 11
25198.20
 21
15775.31
  0
LINE
  8
L-1-1
 10
24998.20
 20
11399.88
 11
24998.20
 21
15775.31
  0
LINE
  8
L-1-1
 10
24798.20
 20
11399.88
 11
24798.20
 21
15775.31
  0
LINE
  8
L-1-1
 10
24598.20
 20
11399.88
 11
24598.20
 21
15775.31
  0
LINE
  8
L-1-1
 10
24398.20
 20
11399.88
 11
24398.20
 21
15775.31
  0
LINE
  8
L-1-1
 10
25798.20
 20
11599.88
 11
25798.20
 21
15775.31
  0
LINE
  8
L-1-1
 10
25998.20
 20
11599.88
 11
25998.20
 21
15775.31
  0
LINE
  8
L-1-1
 10
26198.20
 20
11599.88
 11
26198.20
 21
15775.31
  0
LINE
  8
L-1-1
 10
26598.20
 20
11599.88
 11
26598.20
 21
15775.31
  0
LINE
  8
L-1-1
 10
26798.20
 20
11599.88
 11
26798.20
 21
15775.31
  0
LINE
  8
L-1-1
 10
26998.20
 20
11599.88
 11
26998.20
 21
15775.31
  0
LINE
  8
L-1-1
 10
29383.27
 20
11399.88
 11
29383.27
 21
15775.31
  0
LINE
  8
L-1-1
 10
29383.27
 20
15775.31
 11
28783.27
 21
15775.31
  0
LINE
  8
L-1-1
 10
28783.27
 20
15775.31
 11
28783.27
 21
11399.88
  0
LINE
  8
L-1-1
 10
28783.27
 20
11399.88
 11
29383.27
 21
11399.88
  0
LINE
  8
L-1-1
 10
28983.27
 20
11399.88
 11
28983.27
 21
15775.31
  0
LINE
  8
L-1-1
 10
29183.27
 20
11399.88
 11
29183.27
 21
15775.31
  0
LINE
  8
L-1-1
 10
28783.27
 20
12248.13
 11
29383.27
 21
12248.13
  0
LINE
  8
L-1-1
 10
24198.20
 20
17168.01
 11
27798.20
 21
17168.01
  0
LINE
  8
L-1-1
 10
24198.20
 20
18684.89
 11
27798.20
 21
18684.89
  0
LINE
  8
L-1-1
 10
24198.20
 20
16568.01
 11
27798.20
 21
16568.01
  0
LINE
  8
L-1-1
 10
27798.20
 20
16568.01
 11
27798.20
 21
19765.59
  0
LINE
  8
L-1-1
 10
27798.20
 20
19765.59
 11
24198.20
 21
19765.59
  0
LINE
  8
L-1-1
 10
24198.20
 20
19765.59
 11
24198.20
 21
16568.01
  0
LINE
  8
L-1-1
 10
24398.20
 20
16568.01
 11
24398.20
 21
19765.59
  0
LINE
  8
L-1-1
 10
24598.20
 20
16568.01
 11
24598.20
 21
19765.59
  0
LINE
  8
L-1-1
 10
24798.20
 20
16568.01
 11
24798.20
 21
19765.59
  0
LINE
  8
L-1-1
 10
24998.20
 20
16568.01
 11
24998.20
 21
19765.59
  0
LINE
  8
L-1-1
 10
25198.20
 20
16568.01
 11
25198.20
 21
19765.59
  0
LINE
  8
L-1-1
 10
25398.20
 20
16568.01
 11
25398.20
 21
19765.59
  0
LINE
  8
L-1-1
 10
25598.20
 20
16568.01
 11
25598.20
 21
19765.59
  0
LINE
  8
L-1-1
 10
25798.20
 20
16568.01
 11
25798.20
 21
19765.59
  0
LINE
  8
L-1-1
 10
25998.20
 20
16568.01
 11
25998.20
 21
19765.59
  0
LINE
  8
L-1-1
 10
26398.20
 20
16568.01
 11
26398.20
 21
19765.59
  0
LINE
  8
L-1-1
 10
26198.20
 20
16568.01
 11
26198.20
 21
19765.59
  0
LINE
  8
L-1-1
 10
26598.20
 20
16568.01
 11
26598.20
 21
19765.59
  0
LINE
  8
L-1-1
 10
26798.20
 20
16568.01
 11
26798.20
 21
19765.59
  0
LINE
  8
L-1-1
 10
26998.20
 20
16568.01
 11
26998.20
 21
19765.59
  0
LINE
  8
L-1-1
 10
27198.20
 20
16568.01
 11
27198.20
 21
19765.59
  0
LINE
  8
L-1-1
 10
27398.20
 20
16568.01
 11
27398.20
 21
19765.59
  0
LINE
  8
L-1-1
 10
27598.20
 20
16568.01
 11
27598.20
 21
19765.59
  0
LINE
  8
L-1-1
 10
8251.88
 20
18761.44
 11
8430.42
 21
18761.44
  0
LINE
  8
L-1-1
 10
8430.42
 20
18761.44
 11
8430.42
 21
18867.25
  0
LINE
  8
L-1-1
 10
8430.42
 20
18867.25
 11
8251.88
 21
18867.25
  0
LINE
  8
L-1-1
 10
8251.88
 20
18867.25
 11
8251.88
 21
18761.44
  0
LINE
  8
L-1-1
 10
8251.88
 20
18761.44
 11
7129.95
 21
17743.11
  0
CIRCLE
  8
L-1-1
 10
14351.85
 20
7064.82
 40
14.40
  0
CIRCLE
  8
L-1-1
 10
14351.85
 20
7009.82
 40
14.40
  0
CIRCLE
  8
L-1-1
 10
14351.85
 20
6954.82
 40
14.40
  0
LINE
  8
L-1-1
 10
14381.85
 20
7345.07
 11
14381.85
 21
7455.07
  0
LINE
  8
L-1-1
 10
14381.85
 20
7455.07
 11
14351.85
 21
7455.07
  0
LINE
  8
L-1-1
 10
14351.85
 20
7455.07
 11
14351.85
 21
7345.07
  0
LINE
  8
L-1-1
 10
14351.85
 20
7345.07
 11
14381.85
 21
7345.07
  0
LINE
  8
L-1-1
 10
14366.85
 20
7345.07
 11
14366.85
 21
7455.07
  0
LINE
  8
L-1-1
 10
14521.85
 20
7350.07
 11
14521.85
 21
7450.07
  0
LINE
  8
L-1-1
 10
14521.85
 20
7450.07
 11
14381.85
 21
7450.07
  0
LINE
  8
L-1-1
 10
14381.85
 20
7450.07
 11
14381.85
 21
7350.07
  0
LINE
  8
L-1-1
 10
14381.85
 20
7350.07
 11
14521.85
 21
7350.07
  0
LINE
  8
L-1-1
 10
14571.85
 20
7345.07
 11
14571.85
 21
7455.07
  0
LINE
  8
L-1-1
 10
14571.85
 20
7455.07
 11
14521.85
 21
7455.07
  0
LINE
  8
L-1-1
 10
14521.85
 20
7455.07
 11
14521.85
 21
7345.07
  0
LINE
  8
L-1-1
 10
14521.85
 20
7345.07
 11
14571.85
 21
7345.07
  0
CIRCLE
  8
L-1-1
 10
14351.85
 20
6208.82
 40
14.40
  0
CIRCLE
  8
L-1-1
 10
14351.85
 20
6153.82
 40
14.40
  0
CIRCLE
  8
L-1-1
 10
14351.85
 20
6098.82
 40
14.40
  0
LINE
  8
L-1-1
 10
14381.85
 20
6163.57
 11
14381.85
 21
6273.57
  0
LINE
  8
L-1-1
 10
14381.85
 20
6273.57
 11
14351.85
 21
6273.57
  0
LINE
  8
L-1-1
 10
14351.85
 20
6273.57
 11
14351.85
 21
6163.57
  0
LINE
  8
L-1-1
 10
14351.85
 20
6163.57
 11
14381.85
 21
6163.57
  0
LINE
  8
L-1-1
 10
14366.85
 20
6163.57
 11
14366.85
 21
6273.57
  0
LINE
  8
L-1-1
 10
14521.85
 20
6168.57
 11
14521.85
 21
6268.57
  0
LINE
  8
L-1-1
 10
14521.85
 20
6268.57
 11
14381.85
 21
6268.57
  0
LINE
  8
L-1-1
 10
14381.85
 20
6268.57
 11
14381.85
 21
6168.57
  0
LINE
  8
L-1-1
 10
14381.85
 20
6168.57
 11
14521.85
 21
6168.57
  0
LINE
  8
L-1-1
 10
14571.85
 20
6163.57
 11
14571.85
 21
6273.57
  0
LINE
  8
L-1-1
 10
14571.85
 20
6273.57
 11
14521.85
 21
6273.57
  0
LINE
  8
L-1-1
 10
14521.85
 20
6273.57
 11
14521.85
 21
6163.57
  0
LINE
  8
L-1-1
 10
14521.85
 20
6163.57
 11
14571.85
 21
6163.57
  0
LINE
  8
L-1-1
 10
14158.79
 20
5487.43
 11
13968.96
 21
5487.43
  0
LINE
  8
L-1-1
 10
15107.07
 20
6809.32
 11
15147.07
 21
6809.32
  0
LINE
  8
L-1-1
 10
15147.07
 20
18809.32
 11
15107.07
 21
18809.32
  0
LINE
  8
L-1-1
 10
15107.07
 20
18809.32
 11
15107.07
 21
6809.32
  0
LINE
  8
L-1-1
 10
15107.07
 20
18809.32
 11
15085.63
 21
18729.32
  0
LINE
  8
L-1-1
 10
15107.07
 20
18809.32
 11
15128.51
 21
18729.32
  0
LINE
  8
L-1-1
 10
15107.07
 20
6809.32
 11
15128.51
 21
6889.32
  0
LINE
  8
L-1-1
 10
15107.07
 20
6809.32
 11
15085.63
 21
6889.32
  0
LINE
  8
L-1-1
 10
30542.45
 20
5519.32
 11
30542.45
 21
2559.50
  0
LINE
  8
L-1-1
 10
14375.35
 20
2559.50
 11
14375.35
 21
6369.32
  0
LINE
  8
L-1-1
 10
14375.35
 20
2599.50
 11
30542.45
 21
2599.50
  0
LINE
  8
L-1-1
 10
14375.35
 20
2599.50
 11
14455.35
 21
2578.06
  0
LINE
  8
L-1-1
 10
14375.35
 20
2599.50
 11
14455.35
 21
2620.93
  0
LINE
  8
L-1-1
 10
30542.45
 20
2599.50
 11
30462.45
 21
2620.93
  0
LINE
  8
L-1-1
 10
30542.45
 20
2599.50
 11
30462.45
 21
2578.06
  0
LINE
  8
L-1-1
 10
14375.35
 20
3174.52
 11
14375.35
 21
3214.52
  0
LINE
  8
L-1-1
 10
24662.45
 20
3134.52
 11
24662.45
 21
6369.32
  0
LINE
  8
L-1-1
 10
24662.45
 20
3174.52
 11
14375.35
 21
3174.52
  0
LINE
  8
L-1-1
 10
24662.45
 20
3174.52
 11
24582.45
 21
3195.95
  0
LINE
  8
L-1-1
 10
24662.45
 20
3174.52
 11
24582.45
 21
3153.08
  0
LINE
  8
L-1-1
 10
14375.35
 20
3174.52
 11
14455.35
 21
3153.08
  0
LINE
  8
L-1-1
 10
14375.35
 20
3174.52
 11
14455.35
 21
3195.95
  0
LINE
  8
L-1-1
 10
4735.83
 20
6849.32
 11
4735.83
 21
8472.76
  0
LINE
  8
L-1-1
 10
3005.83
 20
8472.76
 11
3005.83
 21
6849.32
  0
LINE
  8
L-1-1
 10
3005.83
 20
8432.76
 11
5265.52
 21
8432.76
  0
LINE
  8
L-1-1
 10
3005.83
 20
8432.76
 11
3085.83
 21
8411.32
  0
LINE
  8
L-1-1
 10
3005.83
 20
8432.76
 11
3085.83
 21
8454.19
  0
LINE
  8
L-1-1
 10
4735.83
 20
8432.76
 11
4655.83
 21
8454.19
  0
LINE
  8
L-1-1
 10
4735.83
 20
8432.76
 11
4655.83
 21
8411.32
  0
LINE
  8
L-1-1
 10
17315.35
 20
6509.32
 11
17312.04
 21
6509.32
  0
LINE
  8
L-1-1
 10
17315.35
 20
6409.32
 11
17221.01
 21
6409.32
  0
LINE
  8
L-1-1
 10
17339.82
 20
7109.32
 11
17505.74
 21
6818.66
  0
LINE
  8
L-1-1
 10
17539.62
 20
6759.31
 11
17682.32
 21
6509.32
  0
LINE
  8
L-1-1
 10
17385.88
 20
7109.32
 11
17534.05
 21
6849.75
  0
LINE
  8
L-1-1
 10
17567.92
 20
6790.41
 11
17728.38
 21
6509.32
  0
LINE
  8
L-1-1
 10
17770.32
 20
7109.32
 11
17315.35
 21
7109.32
  0
LINE
  8
L-1-1
 10
17861.35
 20
7209.32
 11
17315.35
 21
7209.32
  0
LINE
  8
L-1-1
 10
18170.88
 20
7109.32
 11
18116.35
 21
7013.79
  0
LINE
  8
L-1-1
 10
18041.35
 20
6882.41
 11
17828.38
 21
6509.32
  0
LINE
  8
L-1-1
 10
18124.82
 20
7109.32
 11
18116.35
 21
7094.48
  0
LINE
  8
L-1-1
 10
18041.35
 20
6963.09
 11
17782.32
 21
6509.32
  0
LINE
  8
L-1-1
 10
17315.35
 20
6509.32
 11
18041.35
 21
6509.32
  0
LINE
  8
L-1-1
 10
18116.35
 20
6509.32
 11
18295.35
 21
6509.32
  0
LINE
  8
L-1-1
 10
17315.35
 20
6409.32
 11
18041.35
 21
6409.32
  0
LINE
  8
L-1-1
 10
18295.35
 20
7109.32
 11
18116.35
 21
7109.32
  0
LINE
  8
L-1-1
 10
18041.35
 20
7109.32
 11
17858.22
 21
7109.32
  0
LINE
  8
L-1-1
 10
18041.35
 20
7209.32
 11
17949.25
 21
7209.32
  0
LINE
  8
L-1-1
 10
18295.35
 20
7049.32
 11
18295.35
 21
7209.32
  0
LINE
  8
L-1-1
 10
18295.35
 20
6409.32
 11
18295.35
 21
6569.32
  0
LINE
  8
L-1-1
 10
18270.35
 20
6486.43
 11
18270.35
 21
6569.32
  0
LINE
  8
L-1-1
 10
18270.35
 20
7049.32
 11
18270.35
 21
7132.20
  0
LINE
  8
L-1-1
 10
17093.85
 20
7584.32
 11
17935.79
 21
7291.08
  0
LINE
  8
L-1-1
 10
18002.52
 20
7267.84
 11
18041.35
 21
7254.32
  0
LINE
  8
L-1-1
 10
17071.35
 20
6374.32
 11
17101.26
 21
6374.32
  0
LINE
  8
L-1-1
 10
17189.15
 20
6374.32
 11
18116.35
 21
6374.32
  0
LINE
  8
L-1-1
 10
18116.35
 20
6374.32
 11
18116.35
 21
6289.32
  0
LINE
  8
L-1-1
 10
18116.35
 20
6289.32
 11
14766.35
 21
6289.32
  0
LINE
  8
L-1-1
 10
14766.35
 20
6289.32
 11
14766.35
 21
6374.32
  0
LINE
  8
L-1-1
 10
14766.35
 20
6374.32
 11
16863.02
 21
6374.32
  0
LINE
  8
L-1-1
 10
16863.02
 20
6374.32
 11
17189.15
 21
6374.32
  0
LINE
  8
L-1-1
 10
16985.08
 20
6374.32
 11
17006.35
 21
6374.32
  0
LINE
  8
L-1-1
 10
17290.88
 20
7109.32
 11
17071.35
 21
6724.74
  0
LINE
  8
L-1-1
 10
17006.35
 20
6610.87
 11
16948.38
 21
6509.32
  0
LINE
  8
L-1-1
 10
17244.82
 20
7109.32
 11
17071.35
 21
6805.43
  0
LINE
  8
L-1-1
 10
17006.35
 20
6691.56
 11
16902.32
 21
6509.32
  0
LINE
  8
L-1-1
 10
16335.35
 20
7109.32
 11
17006.35
 21
7109.32
  0
LINE
  8
L-1-1
 10
17071.35
 20
7109.32
 11
17315.35
 21
7109.32
  0
LINE
  8
L-1-1
 10
17071.35
 20
7209.32
 11
17315.35
 21
7209.32
  0
LINE
  8
L-1-1
 10
17224.15
 20
6509.32
 11
17071.35
 21
6509.32
  0
LINE
  8
L-1-1
 10
17133.12
 20
6409.32
 11
17071.35
 21
6409.32
  0
LINE
  8
L-1-1
 10
17093.85
 20
7584.32
 11
17000.98
 21
7584.32
  0
LINE
  8
L-1-1
 10
16878.91
 20
7584.32
 11
15943.85
 21
7584.32
  0
LINE
  8
L-1-1
 10
16335.35
 20
7049.32
 11
16335.35
 21
7165.56
  0
LINE
  8
L-1-1
 10
16404.90
 20
7209.32
 11
17006.35
 21
7209.32
  0
LINE
  8
L-1-1
 10
16335.35
 20
7109.32
 11
16245.94
 21
7109.32
  0
LINE
  8
L-1-1
 10
16335.35
 20
7049.32
 11
16335.35
 21
7165.56
  0
LINE
  8
L-1-1
 10
16310.35
 20
7049.32
 11
16310.35
 21
7149.84
  0
LINE
  8
L-1-1
 10
16322.85
 20
6569.32
 11
16322.85
 21
6714.14
  0
LINE
  8
L-1-1
 10
16322.85
 20
6790.93
 11
16322.85
 21
7049.32
  0
LINE
  8
L-1-1
 10
16247.85
 20
6509.32
 11
16247.85
 21
6761.32
  0
LINE
  8
L-1-1
 10
16247.85
 20
6838.11
 11
16247.85
 21
7109.32
  0
LINE
  8
L-1-1
 10
16347.85
 20
6569.32
 11
16347.85
 21
6698.41
  0
LINE
  8
L-1-1
 10
16347.85
 20
6775.20
 11
16347.85
 21
7049.32
  0
LINE
  8
L-1-1
 10
16422.85
 20
6509.32
 11
16422.85
 21
6651.23
  0
LINE
  8
L-1-1
 10
16422.85
 20
6728.02
 11
16422.85
 21
7109.32
  0
LINE
  8
L-1-1
 10
17006.35
 20
6509.32
 11
16770.49
 21
6509.32
  0
LINE
  8
L-1-1
 10
16648.43
 20
6509.32
 11
16335.35
 21
6509.32
  0
LINE
  8
L-1-1
 10
17006.35
 20
6409.32
 11
16929.45
 21
6409.32
  0
LINE
  8
L-1-1
 10
16807.38
 20
6409.32
 11
16335.35
 21
6409.32
  0
LINE
  8
L-1-1
 10
16335.35
 20
6409.32
 11
16335.35
 21
6569.32
  0
LINE
  8
L-1-1
 10
16335.35
 20
6569.32
 11
16807.38
 21
6409.32
  0
LINE
  8
L-1-1
 10
16119.37
 20
7029.69
 11
16072.86
 21
6948.21
  0
LINE
  8
L-1-1
 10
16191.23
 20
7074.90
 11
16106.74
 21
6926.89
  0
LINE
  8
L-1-1
 10
15355.35
 20
6509.32
 11
15966.35
 21
6509.32
  0
LINE
  8
L-1-1
 10
16031.35
 20
6509.32
 11
16335.35
 21
6509.32
  0
LINE
  8
L-1-1
 10
15355.35
 20
6409.32
 11
15966.35
 21
6409.32
  0
LINE
  8
L-1-1
 10
16031.35
 20
6409.32
 11
16335.35
 21
6409.32
  0
LINE
  8
L-1-1
 10
16335.35
 20
6409.32
 11
16335.35
 21
6569.32
  0
LINE
  8
L-1-1
 10
16335.35
 20
6569.32
 11
16031.35
 21
6409.32
  0
LINE
  8
L-1-1
 10
16123.88
 20
7109.32
 11
16031.35
 21
7109.32
  0
LINE
  8
L-1-1
 10
16282.83
 20
7209.32
 11
16031.35
 21
7209.32
  0
LINE
  8
L-1-1
 10
15966.35
 20
7209.32
 11
15355.35
 21
7209.32
  0
LINE
  8
L-1-1
 10
16040.60
 20
6891.70
 11
16031.35
 21
6875.50
  0
LINE
  8
L-1-1
 10
15966.35
 20
6761.63
 11
15822.32
 21
6509.32
  0
LINE
  8
L-1-1
 10
16074.49
 20
6870.38
 11
16031.35
 21
6794.81
  0
LINE
  8
L-1-1
 10
15966.35
 20
6680.94
 11
15868.38
 21
6509.32
  0
LINE
  8
L-1-1
 10
16360.35
 20
7049.32
 11
16360.35
 21
7181.29
  0
LINE
  8
L-1-1
 10
15355.35
 20
6409.32
 11
15200.93
 21
6409.32
  0
LINE
  8
L-1-1
 10
15379.82
 20
7109.32
 11
15592.81
 21
6736.20
  0
LINE
  8
L-1-1
 10
15625.07
 20
6679.68
 11
15722.32
 21
6509.32
  0
LINE
  8
L-1-1
 10
15425.88
 20
7109.32
 11
15626.58
 21
6757.73
  0
LINE
  8
L-1-1
 10
15658.84
 20
6701.21
 11
15768.38
 21
6509.32
  0
LINE
  8
L-1-1
 10
15331.72
 20
7209.32
 11
15355.35
 21
7209.32
  0
LINE
  8
L-1-1
 10
15966.35
 20
7109.32
 11
15710.00
 21
7109.32
  0
LINE
  8
L-1-1
 10
15455.67
 20
7109.32
 11
15355.35
 21
7109.32
  0
LINE
  8
L-1-1
 10
14841.35
 20
6511.02
 11
14842.32
 21
6509.32
  0
LINE
  8
L-1-1
 10
14841.35
 20
6591.70
 11
14888.38
 21
6509.32
  0
LINE
  8
L-1-1
 10
14841.35
 20
7109.32
 11
15355.35
 21
7109.32
  0
LINE
  8
L-1-1
 10
15236.88
 20
6509.32
 11
14841.35
 21
6509.32
  0
LINE
  8
L-1-1
 10
15080.01
 20
6409.32
 11
14841.35
 21
6409.32
  0
LINE
  8
L-1-1
 10
14841.35
 20
7209.32
 11
15077.38
 21
7209.32
  0
LINE
  8
L-1-1
 10
14766.35
 20
6409.32
 11
14564.35
 21
6409.32
  0
LINE
  8
L-1-1
 10
14766.35
 20
6509.32
 11
14564.35
 21
6509.32
  0
LINE
  8
L-1-1
 10
14499.82
 20
7109.32
 11
14529.35
 21
7057.59
  0
LINE
  8
L-1-1
 10
14564.35
 20
6996.27
 11
14766.35
 21
6642.40
  0
LINE
  8
L-1-1
 10
14564.35
 20
7076.96
 11
14766.35
 21
6723.09
  0
LINE
  8
L-1-1
 10
14564.35
 20
7109.32
 11
14766.35
 21
7109.32
  0
LINE
  8
L-1-1
 10
14564.35
 20
7209.32
 11
14766.35
 21
7209.32
  0
LINE
  8
L-1-1
 10
14400.35
 20
7049.32
 11
14400.35
 21
7109.32
  0
LINE
  8
L-1-1
 10
14529.35
 20
7344.82
 11
14529.35
 21
6806.82
  0
LINE
  8
L-1-1
 10
14531.54
 20
7636.52
 11
14529.81
 21
7455.07
  0
LINE
  8
L-1-1
 10
14564.35
 20
6806.82
 11
14564.35
 21
7345.07
  0
LINE
  8
L-1-1
 10
14562.16
 20
7636.52
 11
14563.89
 21
7455.07
  0
LINE
  8
L-1-1
 10
15052.05
 20
7283.25
 11
15943.85
 21
7584.32
  0
LINE
  8
L-1-1
 10
14907.16
 20
7254.32
 11
14766.35
 21
7254.32
  0
LINE
  8
L-1-1
 10
14766.35
 20
7254.32
 11
14766.35
 21
7329.32
  0
LINE
  8
L-1-1
 10
14766.35
 20
7329.32
 11
14966.35
 21
7329.32
  0
LINE
  8
L-1-1
 10
14966.35
 20
7329.32
 11
14907.16
 21
7254.32
  0
LINE
  8
L-1-1
 10
14381.85
 20
7109.32
 11
14529.35
 21
7109.32
  0
LINE
  8
L-1-1
 10
14381.85
 20
7049.32
 11
14400.35
 21
7049.32
  0
LINE
  8
L-1-1
 10
14381.85
 20
6569.32
 11
14400.35
 21
6569.32
  0
LINE
  8
L-1-1
 10
14529.35
 20
6509.32
 11
14381.85
 21
6509.32
  0
LINE
  8
L-1-1
 10
14400.35
 20
6448.50
 11
14400.35
 21
6569.32
  0
LINE
  8
L-1-1
 10
14531.54
 20
5982.12
 11
14529.77
 21
6163.57
  0
LINE
  8
L-1-1
 10
14562.16
 20
5982.12
 11
14563.93
 21
6163.57
  0
LINE
  8
L-1-1
 10
14564.35
 20
6806.82
 11
14564.35
 21
6273.57
  0
LINE
  8
L-1-1
 10
14529.35
 20
6273.57
 11
14529.35
 21
6806.82
  0
LINE
  8
L-1-1
 10
14521.85
 20
6268.82
 11
14519.35
 21
6268.82
  0
LINE
  8
L-1-1
 10
13968.45
 20
5775.52
 11
13341.92
 21
7013.22
  0
LINE
  8
L-1-1
 10
13283.96
 20
7127.72
 11
12636.55
 21
8406.66
  0
LINE
  8
L-1-1
 10
13933.83
 20
5755.53
 11
13310.54
 21
6986.79
  0
LINE
  8
L-1-1
 10
13252.57
 20
7101.30
 11
12601.90
 21
8386.65
  0
LINE
  8
L-1-1
 10
13887.84
 20
5728.98
 11
13153.23
 21
6854.31
  0
LINE
  8
L-1-1
 10
13084.43
 20
6959.70
 11
12275.82
 21
8198.39
  0
LINE
  8
L-1-1
 10
13853.21
 20
5708.99
 11
13122.45
 21
6828.40
  0
LINE
  8
L-1-1
 10
13053.66
 20
6933.78
 11
12241.17
 21
8178.39
  0
LINE
  8
L-1-1
 10
13049.36
 20
7013.43
 11
13125.79
 21
6994.53
  0
LINE
  8
L-1-1
 10
13275.70
 20
6957.45
 11
13332.50
 21
6943.41
  0
LINE
  8
L-1-1
 10
13025.30
 20
7050.28
 11
13154.16
 21
7018.42
  0
LINE
  8
L-1-1
 10
13304.07
 20
6981.34
 11
13314.62
 21
6978.73
  0
LINE
  8
L-1-1
 10
13231.85
 20
4184.32
 11
13231.85
 21
7829.35
  0
LINE
  8
L-1-1
 10
13681.85
 20
4184.32
 11
13681.85
 21
7829.35
  0
LINE
  8
L-1-1
 10
20884.15
 20
12437.56
 11
22364.57
 21
11982.87
  0
LINE
  8
L-1-1
 10
22364.57
 20
11982.87
 11
22364.57
 21
10864.24
  0
LINE
  8
L-1-1
 10
22364.57
 20
10864.24
 11
20884.15
 21
12437.56
  0
LINE
  8
L-1-1
 10
22186.80
 20
13558.94
 11
22186.80
 21
14777.31
  0
LINE
  8
L-1-1
 10
22186.80
 20
14777.31
 11
21840.98
 21
14777.31
  0
LINE
  8
L-1-1
 10
21840.98
 20
14777.31
 11
21840.98
 21
13558.94
  0
LINE
  8
L-1-1
 10
21840.98
 20
13558.94
 11
22186.80
 21
13558.94
  0
LINE
  8
L-1-1
 10
24600.98
 20
6322.33
 11
24725.50
 21
6322.33
  0
LINE
  8
L-1-1
 10
24725.50
 20
6322.33
 11
24725.50
 21
7295.61
  0
LINE
  8
L-1-1
 10
24725.50
 20
7295.61
 11
24600.98
 21
7295.61
  0
LINE
  8
L-1-1
 10
24600.98
 20
7295.61
 11
24600.98
 21
6322.33
  0
CIRCLE
  8
L-1-1
 10
24725.50
 20
7295.61
 40
44.25
  0
CIRCLE
  8
L-1-1
 10
24725.50
 20
6322.33
 40
44.25
  0
LINE
  8
L-1-1
 10
24756.79
 20
7326.90
 11
25919.97
 21
8490.08
  0
LINE
  8
L-1-1
 10
24756.79
 20
6291.04
 11
25825.08
 21
5222.75
  0
TEXT
  8
NTEXT
 10
13774.85
 20
3607.43
 40
140.00
 41
0.50
  1
４５０
 50
0.00
  7
KANJI
  0
TEXT
  8
NTEXT
 10
13324.85
 20
3607.43
 40
140.00
 41
0.50
  1
４５０
 50
0.00
  7
KANJI
  0
TEXT
  8
NTEXT
 10
13549.85
 20
3284.03
 40
140.00
 41
0.50
  1
９００
 50
0.00
  7
KANJI
  0
TEXT
  8
NTEXT
 10
11947.38
 20
2784.51
 40
140.00
 41
0.50
  1
３８７０
 50
0.00
  7
KANJI
  0
TEXT
  8
NTEXT
 10
3694.83
 20
3835.16
 40
140.00
 41
0.50
  1
１３２５
 50
0.00
  7
KANJI
  0
TEXT
  8
NTEXT
 10
5159.47
 20
5320.82
 40
140.00
 41
0.50
  1
２６２５
 50
90.00
  7
KANJI
  0
TEXT
  8
NTEXT
 10
5159.47
 20
7148.82
 40
140.00
 41
0.50
  1
９４３
 50
90.00
  7
KANJI
  0
TEXT
  8
NTEXT
 10
18114.45
 20
11569.56
 40
140.00
 41
0.50
  1
２５００
 50
-45.01
  7
KANJI
  0
TEXT
  8
NTEXT
 10
18472.04
 20
11927.15
 40
140.00
 41
0.50
  1
２３００
 50
-45.01
  7
KANJI
  0
TEXT
  8
NTEXT
 10
20811.32
 20
11466.31
 40
140.00
 41
0.50
  1
２８６
 50
45.00
  7
KANJI
  0
TEXT
  8
NTEXT
 10
19376.07
 20
4852.29
 40
140.00
 41
0.50
  1
８００
 50
90.00
  7
KANJI
  0
TEXT
  8
NTEXT
 10
19984.58
 20
4219.98
 40
140.00
 41
0.50
  1
８００
 50
0.00
  7
KANJI
  0
TEXT
  8
NTEXT
 10
15087.07
 20
5320.82
 40
140.00
 41
0.50
  1
２６２５
 50
90.00
  7
KANJI
  0
TEXT
  8
NTEXT
 10
26158.76
 20
14049.81
 40
140.00
 41
0.69
  1
５０／６０Ｈｚ
 50
90.00
  7
KANJI
  0
TEXT
  8
NTEXT
 10
26377.57
 20
14057.05
 40
140.00
 41
0.69
  1
５０／６０Ｈｚ
 50
90.00
  7
KANJI
  0
TEXT
  8
NTEXT
 10
25768.20
 20
11735.96
 40
140.00
 41
0.69
  1
巻上
 50
90.00
  7
KANJI
  0
TEXT
  8
NTEXT
 10
25968.20
 20
11735.96
 40
140.00
 41
0.69
  1
起伏
 50
90.00
  7
KANJI
  0
TEXT
  8
NTEXT
 10
26168.20
 20
11735.96
 40
140.00
 41
0.69
  1
旋回
 50
90.00
  7
KANJI
  0
TEXT
  8
NTEXT
 10
26368.20
 20
11735.96
 40
140.00
 41
0.69
  1
昇降
 50
90.00
  7
KANJI
  0
TEXT
  8
NTEXT
 10
26568.20
 20
11747.67
 40
140.00
 41
0.69
  1
巻上
 50
90.00
  7
KANJI
  0
TEXT
  8
NTEXT
 10
26768.20
 20
11735.96
 40
140.00
 41
0.69
  1
起伏
 50
90.00
  7
KANJI
  0
TEXT
  8
NTEXT
 10
26968.20
 20
11735.96
 40
140.00
 41
0.69
  1
旋回
 50
90.00
  7
KANJI
  0
TEXT
  8
NTEXT
 10
27168.20
 20
11735.96
 40
140.00
 41
0.69
  1
昇降
 50
90.00
  7
KANJI
  0
TEXT
  8
NTEXT
 10
27568.20
 20
11473.53
 40
140.00
 41
0.69
  1
安全装置
 50
90.00
  7
KANJI
  0
TEXT
  8
NTEXT
 10
27968.20
 20
11473.53
 40
140.00
 41
0.69
  1
操作方式
 50
90.00
  7
KANJI
  0
TEXT
  8
NTEXT
 10
28168.20
 20
11602.63
 40
140.00
 41
0.69
  1
電源
 50
90.00
  7
KANJI
  0
TEXT
  8
NTEXT
 10
24368.20
 20
11602.63
 40
140.00
 41
0.69
  1
仕様
 50
90.00
  7
KANJI
  0
TEXT
  8
NTEXT
 10
24568.20
 20
11473.53
 40
140.00
 41
0.69
  1
定格荷重
 50
90.00
  7
KANJI
  0
TEXT
  8
NTEXT
 10
24768.20
 20
11473.53
 40
140.00
 41
0.69
  1
旋回半径
 50
90.00
  7
KANJI
  0
TEXT
  8
NTEXT
 10
24968.20
 20
11473.53
 40
140.00
 41
0.69
  1
旋回角度
 50
90.00
  7
KANJI
  0
TEXT
  8
NTEXT
 10
25168.20
 20
11473.53
 40
140.00
 41
0.69
  1
最大揚程
 50
90.00
  7
KANJI
  0
TEXT
  8
NTEXT
 10
25368.20
 20
11473.53
 40
140.00
 41
0.69
  1
自立高さ
 50
90.00
  7
KANJI
  0
TEXT
  8
NTEXT
 10
25568.20
 20
11473.53
 40
140.00
 41
0.69
  1
昇降方式
 50
90.00
  7
KANJI
  0
TEXT
  8
NTEXT
 10
24749.30
 20
12462.98
 40
140.00
 41
0.69
  1
０～１２ｍ
 50
90.00
  7
KANJI
  0
TEXT
  8
NTEXT
 10
24957.68
 20
12459.83
 40
140.00
 41
0.69
  1
３６０度
 50
90.00
  7
KANJI
  0
TEXT
  8
NTEXT
 10
25152.16
 20
12456.69
 40
140.00
 41
0.69
  1
６５ｍ
 50
90.00
  7
KANJI
  0
TEXT
  8
NTEXT
 10
25352.95
 20
12457.95
 40
140.00
 41
0.69
  1
１０ｍ
 50
90.00
  7
KANJI
  0
TEXT
  8
NTEXT
 10
25551.22
 20
12459.07
 40
140.00
 41
0.69
  1
パワーシリンダクライミング
 50
90.00
  7
KANJI
  0
TEXT
  8
NTEXT
 10
25748.22
 20
14044.05
 40
140.00
 41
0.69
  1
５０／６０Ｈｚ
 50
90.00
  7
KANJI
  0
TEXT
  8
NTEXT
 10
25949.02
 20
14045.31
 40
140.00
 41
0.69
  1
５０／６０Ｈｚ
 50
90.00
  7
KANJI
  0
TEXT
  8
NTEXT
 10
26555.99
 20
12456.04
 40
140.00
 41
0.69
  1
３．９ｋｗ－４Ｐ
 50
90.00
  7
KANJI
  0
TEXT
  8
NTEXT
 10
26753.00
 20
12459.83
 40
140.00
 41
0.69
  1
２．２ｋｗ－６Ｐ
 50
90.00
  7
KANJI
  0
TEXT
  8
NTEXT
 10
27156.48
 20
12459.83
 40
140.00
 41
0.69
  1
１．５ｋｗ－４Ｐ
 50
90.00
  7
KANJI
  0
TEXT
  8
NTEXT
 10
26953.79
 20
12456.66
 40
140.00
 41
0.69
  1
０．７５ｋｗ－４Ｐ
 50
90.00
  7
KANJI
  0
TEXT
  8
NTEXT
 10
27357.60
 20
12455.42
 40
140.00
 41
0.69
  1
過負荷、過巻、
 50
90.00
  7
KANJI
  0
TEXT
  8
NTEXT
 10
27547.03
 20
12463.66
 40
140.00
 41
0.69
  1
各防止装置
 50
90.00
  7
KANJI
  0
TEXT
  8
NTEXT
 10
27753.51
 20
12457.23
 40
140.00
 41
0.69
  1
起伏、旋回、昇降各制限装置
 50
90.00
  7
KANJI
  0
TEXT
  8
NTEXT
 10
27956.20
 20
12453.49
 40
140.00
 41
0.69
  1
押しボタン式遠隔装置
 50
90.00
  7
KANJI
  0
TEXT
  8
NTEXT
 10
28155.10
 20
12457.15
 40
140.00
 41
0.69
  1
２００／２２０Ｖ、３φ、５０／６０Ｈ
 50
90.00
  7
KANJI
  0
TEXT
  8
NTEXT
 10
29153.27
 20
11521.94
 40
140.00
 41
0.69
  1
巻上索
 50
90.00
  7
KANJI
  0
TEXT
  8
NTEXT
 10
29353.27
 20
11521.94
 40
140.00
 41
0.69
  1
起伏索
 50
90.00
  7
KANJI
  0
TEXT
  8
NTEXT
 10
29149.85
 20
12463.44
 40
140.00
 41
0.69
  1
モノロープＡ、４ｘＦ（３０）、１０φ
 50
90.00
  7
KANJI
  0
TEXT
  8
NTEXT
 10
29343.07
 20
12452.21
 40
140.00
 41
0.69
  1
ＪＩＳ－６号、６ｘ３７、８φ、Ａ種
 50
90.00
  7
KANJI
  0
TEXT
  8
NTEXT
 10
28945.27
 20
12909.66
 40
140.00
 41
0.69
  1
各ロープ仕様
 50
90.00
  7
KANJI
  0
TEXT
  8
NTEXT
 10
28108.56
 20
17024.20
 40
140.00
 41
0.69
  1
＊）アンカーボルトは客先殿御手配
 50
90.00
  7
KANJI
  0
TEXT
  8
NTEXT
 10
24368.20
 20
16688.01
 40
140.00
 41
0.69
  1
記号
 50
90.00
  7
KANJI
  0
TEXT
  8
NTEXT
 10
24568.20
 20
16940.98
 40
140.00
 41
0.69
  1
１
 50
90.00
  7
KANJI
  0
TEXT
  8
NTEXT
 10
24768.20
 20
16940.98
 40
140.00
 41
0.69
  1
２
 50
90.00
  7
KANJI
  0
TEXT
  8
NTEXT
 10
24968.20
 20
16940.98
 40
140.00
 41
0.69
  1
３
 50
90.00
  7
KANJI
  0
TEXT
  8
NTEXT
 10
25168.20
 20
16940.98
 40
140.00
 41
0.69
  1
４
 50
90.00
  7
KANJI
  0
TEXT
  8
NTEXT
 10
25368.20
 20
16940.98
 40
140.00
 41
0.69
  1
５
 50
90.00
  7
KANJI
  0
TEXT
  8
NTEXT
 10
25568.20
 20
16940.98
 40
140.00
 41
0.69
  1
６
 50
90.00
  7
KANJI
  0
TEXT
  8
NTEXT
 10
25768.20
 20
16940.98
 40
140.00
 41
0.69
  1
７
 50
90.00
  7
KANJI
  0
TEXT
  8
NTEXT
 10
25968.20
 20
16940.98
 40
140.00
 41
0.69
  1
８
 50
90.00
  7
KANJI
  0
TEXT
  8
NTEXT
 10
26168.20
 20
16940.98
 40
140.00
 41
0.69
  1
９
 50
90.00
  7
KANJI
  0
TEXT
  8
NTEXT
 10
26368.87
 20
16819.58
 40
140.00
 41
0.69
  1
１０
 50
90.00
  7
KANJI
  0
TEXT
  8
NTEXT
 10
26564.64
 20
16820.67
 40
140.00
 41
0.69
  1
１１
 50
90.00
  7
KANJI
  0
TEXT
  8
NTEXT
 10
26769.11
 20
16820.67
 40
140.00
 41
0.69
  1
１２
 50
90.00
  7
KANJI
  0
TEXT
  8
NTEXT
 10
26969.23
 20
16817.41
 40
140.00
 41
0.69
  1
１３
 50
90.00
  7
KANJI
  0
TEXT
  8
NTEXT
 10
27167.18
 20
16828.28
 40
140.00
 41
0.69
  1
１４
 50
90.00
  7
KANJI
  0
TEXT
  8
NTEXT
 10
27377.09
 20
16826.11
 40
140.00
 41
0.69
  1
１５
 50
90.00
  7
KANJI
  0
TEXT
  8
NTEXT
 10
27563.07
 20
16827.19
 40
140.00
 41
0.69
  1
１６
 50
90.00
  7
KANJI
  0
TEXT
  8
NTEXT
 10
24368.20
 20
17682.99
 40
140.00
 41
0.69
  1
名称
 50
90.00
  7
KANJI
  0
TEXT
  8
NTEXT
 10
24555.61
 20
17245.46
 40
140.00
 41
0.69
  1
２．３ｍベース
 50
90.00
  7
KANJI
  0
TEXT
  8
NTEXT
 10
24754.58
 20
17240.49
 40
140.00
 41
0.69
  1
Ｍ３０アンカーボルト
 50
90.00
  7
KANJI
  0
TEXT
  8
NTEXT
 10
24958.03
 20
17239.80
 40
140.00
 41
0.69
  1
標準マスト
 50
90.00
  7
KANJI
  0
TEXT
  8
NTEXT
 10
25155.51
 20
17239.16
 40
140.00
 41
0.69
  1
クライングフレーム
 50
90.00
  7
KANJI
  0
TEXT
  8
NTEXT
 10
25357.46
 20
17241.45
 40
140.00
 41
0.69
  1
昇降装置
 50
90.00
  7
KANJI
  0
TEXT
  8
NTEXT
 10
25558.19
 20
17245.62
 40
140.00
 41
0.69
  1
アウトマスト
 50
90.00
  7
KANJI
  0
TEXT
  8
NTEXT
 10
25751.17
 20
17236.65
 40
140.00
 41
0.69
  1
旋回フレーム
 50
90.00
  7
KANJI
  0
TEXT
  8
NTEXT
 10
25957.62
 20
17244.29
 40
140.00
 41
0.69
  1
ローラパス
 50
90.00
  7
KANJI
  0
TEXT
  8
NTEXT
 10
26152.10
 20
17244.13
 40
140.00
 41
0.69
  1
巻上ウインチ
 50
90.00
  7
KANJI
  0
TEXT
  8
NTEXT
 10
26355.55
 20
17241.13
 40
140.00
 41
0.69
  1
起伏ウインチ
 50
90.00
  7
KANJI
  0
TEXT
  8
NTEXT
 10
26553.02
 20
17251.93
 40
140.00
 41
0.69
  1
旋回装置
 50
90.00
  7
KANJI
  0
TEXT
  8
NTEXT
 10
26755.50
 20
17238.30
 40
140.00
 41
0.69
  1
Ａフレーム
 50
90.00
  7
KANJI
  0
TEXT
  8
NTEXT
 10
26957.45
 20
17243.11
 40
140.00
 41
0.69
  1
ブーム
 50
90.00
  7
KANJI
  0
TEXT
  8
NTEXT
 10
27154.93
 20
17242.47
 40
140.00
 41
0.69
  1
フックブロック
 50
90.00
  7
KANJI
  0
TEXT
  8
NTEXT
 10
27356.89
 20
17244.29
 40
140.00
 41
0.69
  1
巻上ワイヤ
 50
90.00
  7
KANJI
  0
TEXT
  8
NTEXT
 10
27552.86
 20
17245.78
 40
140.00
 41
0.69
  1
起伏ワイヤ
 50
90.00
  7
KANJI
  0
TEXT
  8
NTEXT
 10
24100.16
 20
19222.65
 40
140.00
 41
0.69
  1
（ｋｇ）
 50
90.00
  7
KANJI
  0
TEXT
  8
NTEXT
 10
24368.20
 20
19042.79
 40
140.00
 41
0.69
  1
重量
 50
90.00
  7
KANJI
  0
TEXT
  8
NTEXT
 10
27758.46
 20
18696.15
 40
140.00
 41
0.69
  1
（単位）　　
 50
90.00
  7
KANJI
  0
TEXT
  8
NTEXT
 10
27760.33
 20
19155.15
 40
140.00
 41
0.69
  1
ｋｇ
 50
90.00
  7
KANJI
  0
TEXT
  8
NTEXT
 10
24558.41
 20
19036.95
 40
140.00
 41
0.69
  1
４３０
 50
90.00
  7
KANJI
  0
TEXT
  8
NTEXT
 10
24955.22
 20
19040.70
 40
140.00
 41
0.69
  1
２６０
 50
90.00
  7
KANJI
  0
TEXT
  8
NTEXT
 10
25171.10
 20
19168.08
 40
140.00
 41
0.69
  1
５０
 50
90.00
  7
KANJI
  0
TEXT
  8
NTEXT
 10
25375.74
 20
19039.45
 40
140.00
 41
0.69
  1
１３０
 50
90.00
  7
KANJI
  0
TEXT
  8
NTEXT
 10
25559.18
 20
19035.70
 40
140.00
 41
0.69
  1
６５０
 50
90.00
  7
KANJI
  0
TEXT
  8
NTEXT
 10
25756.55
 20
19045.69
 40
140.00
 41
0.69
  1
７６０
 50
90.00
  7
KANJI
  0
TEXT
  8
NTEXT
 10
25957.45
 20
19035.70
 40
140.00
 41
0.69
  1
５４０
 50
90.00
  7
KANJI
  0
TEXT
  8
NTEXT
 10
26157.10
 20
19036.95
 40
140.00
 41
0.69
  1
２３０
 50
90.00
  7
KANJI
  0
TEXT
  8
NTEXT
 10
26359.25
 20
19045.69
 40
140.00
 41
0.69
  1
２３０
 50
90.00
  7
KANJI
  0
TEXT
  8
NTEXT
 10
26760.49
 20
19043.25
 40
140.00
 41
0.69
  1
４５０
 50
90.00
  7
KANJI
  0
TEXT
  8
NTEXT
 10
26953.28
 20
19039.50
 40
140.00
 41
0.69
  1
５３０
 50
90.00
  7
KANJI
  0
TEXT
  8
NTEXT
 10
26567.70
 20
19155.66
 40
140.00
 41
0.69
  1
９０
 50
90.00
  7
KANJI
  0
TEXT
  8
NTEXT
 10
27170.41
 20
19170.63
 40
140.00
 41
0.69
  1
５０
 50
90.00
  7
KANJI
  0
TEXT
  8
NTEXT
 10
27374.43
 20
19161.27
 40
140.00
 41
0.69
  1
５２
 50
90.00
  7
KANJI
  0
TEXT
  8
NTEXT
 10
27572.83
 20
19161.27
 40
140.00
 41
0.69
  1
４０
 50
90.00
  7
KANJI
  0
TEXT
  8
NTEXT
 10
24759.31
 20
19166.40
 40
140.00
 41
0.69
  1
－
 50
90.00
  7
KANJI
  0
TEXT
  8
NTEXT
 10
24544.72
 20
12461.07
 40
140.00
 41
0.69
  1
１．０ｔｏｎ
 50
90.00
  7
KANJI
  0
TEXT
  8
NTEXT
 10
25752.01
 20
12458.46
 40
140.00
 41
0.69
  1
１６．５／２０ｍ／ｍｉｎ
 50
90.00
  7
KANJI
  0
TEXT
  8
NTEXT
 10
25952.81
 20
12459.78
 40
140.00
 41
0.69
  1
６．７／８．０ｍ
 50
90.00
  7
KANJI
  0
TEXT
  8
NTEXT
 10
26156.30
 20
12449.04
 40
140.00
 41
0.69
  1
０．３０／０．３６ｒｐｍ
 50
90.00
  7
KANJI
  0
TEXT
  8
NTEXT
 10
26355.20
 20
12453.49
 40
140.00
 41
0.69
  1
１．６２／１．９８ｍ
 50
90.00
  7
KANJI
  0
TEXT
  8
NTEXT
 10
15087.07
 20
12589.32
 40
140.00
 41
0.50
  1
１２０００
 50
90.00
  7
KANJI
  0
TEXT
  8
NTEXT
 10
21886.90
 20
2619.50
 40
140.00
 41
0.50
  1
１９６０ｘ２６＝５０９６０
 50
0.00
  7
KANJI
  0
TEXT
  8
NTEXT
 10
19034.90
 20
3194.52
 40
140.00
 41
0.50
  1
１００００（自立高さ）
 50
0.00
  7
KANJI
  0
TEXT
  8
NTEXT
 10
4913.52
 20
8493.40
 40
140.00
 41
0.50
  1
１７３０
 50
0.00
  7
KANJI
  0
TEXT
  8
NTEXT
 10
22300.41
 20
10904.85
 40
140.00
 41
0.69
  1
アンカーボルト
 50
90.00
  7
KANJI
  0
TEXT
  8
NTEXT
 10
22123.78
 20
10880.61
 40
140.00
 41
0.69
  1
２ｘ４－３０Ｍ
 50
90.00
  7
KANJI
  0
TEXT
  8
NTEXT
 10
22090.80
 20
13764.03
 40
140.00
 41
0.69
  1
ベース部平面図
 50
90.00
  7
KANJI
  0
TEXT
  8
NTEXT
 10
18365.30
 20
1296.03
 40
280.00
 41
0.69
  1
ＨＳＬ－１０００－１２Ｕ　１／４０
 50
0.00
  7
KANJI
  0
ENDSEC
  0
EOF
