  0
SECTION
  2
HEADER
  9
$EXTMIN
 10
0
 20
0
  9
$EXTMAX
 10
420
 20
297
  0
ENDSEC
  0
SECTION
  2
TABLES
  0
TABLE
  2
LTYPE
 70
     9
  0
LTYPE
  2
CONTINUOUS
 70
    64
  3
実線
 72
    65
 73
     0
 40
0.0
  0
LTYPE
  2
DASHED1
 70
    64
  3
--  --  --  --  --  --  --  --  
 72
    65
 73
     2
 40
2.5
 49
1.25
 49
-1.25
  0
LTYPE
  2
DASHED2
 70
    64
  3
----    ----    ----    ----    
 72
    65
 73
     2
 40
5.0
 49
2.5
 49
-2.5
  0
LTYPE
  2
DASHED3
 70
    64
  3
------  ------  ------  ------  
 72
    65
 73
     2
 40
5.0
 49
3.75
 49
-1.25
  0
LTYPE
  2
CENTER1
 70
    64
  3
----- - ----- - ----- - ----- - 
 72
    65
 73
     4
 40
10.0
 49
6.25
 49
-1.25
 49
1.25
 49
-1.25
  0
LTYPE
  2
CENTER2
 70
    64
  3
----------  --  ----------  --  
 72
    65
 73
     4
 40
20.0
 49
12.5
 49
-2.5
 49
2.5
 49
-2.5
  0
LTYPE
  2
PHANTOM1
 70
    64
  3
--- - - --- - - --- - - --- - - 
 72
    65
 73
     6
 40
10.0
 49
3.25
 49
-1.25
 49
1.25
 49
-1.25
 49
1.25
 49
-1.25
  0
LTYPE
  2
PHANTOM2
 70
    64
  3
--------  -  -  --------  -  -  
 72
    65
 73
     6
 40
20.0
 49
10.0
 49
-2.5
 49
1.25
 49
-2.5
 49
1.25
 49
-2.5
  0
LTYPE
  2
DOT
 70
    64
  3
-   -   -   -   -   -   -   -   
 72
    65
 73
     2
 40
2.5
 49
0.625
 49
-1.875
  0
ENDTAB
  0
TABLE
  2
STYLE
 70
    1
  0
STYLE
  2
STANDARD
 70
    64
 40
0.0
 41
1.0
 42
0.0
 50
0.0
 71
     0
  3
TXT
  4
BIGFONT
  0
ENDTAB
  0
TABLE
  2
LAYER
 70
    4
  0
LAYER
  2
0-0
 70
   64
 62
    7
  6
CONTINUOUS
  0
LAYER
  2
1-0
 70
   64
 62
    7
  6
CONTINUOUS
  0
LAYER
  2
1-1
 70
   64
 62
    7
  6
CONTINUOUS
  0
LAYER
  2
ADD_LINE
 70
   64
 62
    7
  6
CONTINUOUS
  0
ENDTAB
  0
ENDSEC
  0
SECTION
  2
ENTITIES
  0
LINE
  8
0-0
  6
CONTINUOUS
 62
    7
 10
300.46854
 20
52.820118
 11
300.46854
 21
4.3201198
  0
LINE
  8
0-0
  6
CONTINUOUS
 62
    7
 10
367.46857
 20
52.820118
 11
367.46857
 21
4.3201198
  0
LINE
  8
0-0
  6
CONTINUOUS
 62
    7
 10
379.42582
 20
52.640087
 11
379.42582
 21
45.518101
  0
LINE
  8
0-0
  6
CONTINUOUS
 62
    7
 10
353.9686
 20
52.820118
 11
353.9686
 21
45.518101
  0
LINE
  8
0-0
  6
CONTINUOUS
 62
    7
 10
307.46852
 20
52.820118
 11
307.46852
 21
45.518101
  0
LINE
  8
0-0
  6
CONTINUOUS
 62
    7
 10
310.01354
 20
36.36829
 11
362.6066
 21
36.36829
  0
LINE
  8
0-0
  6
CONTINUOUS
 62
    7
 10
391.79945
 20
52.820118
 11
391.79945
 21
17.851923
  0
LINE
  8
0-0
  6
CONTINUOUS
 62
    7
 10
376.73477
 20
7.0734523
 11
382.59518
 21
7.0734523
  0
LINE
  8
0-0
  6
CONTINUOUS
 62
    7
 10
389.18804
 20
7.0734523
 11
396.0252
 21
7.0734523
  0
LINE
  8
0-0
  6
CONTINUOUS
 62
    7
 10
313.96854
 20
24.898774
 11
313.96854
 21
18.061665
  0
LINE
  8
0-0
  6
CONTINUOUS
 62
    7
 10
336.73147
 20
24.898774
 11
336.73147
 21
18.061665
  0
LINE
  8
0-0
  6
CONTINUOUS
 62
    7
 10
350.23144
 20
24.898774
 11
350.23144
 21
18.061665
  0
LINE
  8
0-0
  6
CONTINUOUS
 62
    7
 10
301.35537
 20
11.373628
 11
305.37364
 21
14.521967
  0
LINE
  8
0-0
  6
CONTINUOUS
 62
    7
 10
301.35537
 20
11.373628
 11
305.37703
 21
8.1727083
  0
LINE
  8
0-0
  6
CONTINUOUS
 62
    7
 10
305.37703
 20
8.1727083
 11
309.42307
 21
11.342797
  0
LINE
  8
0-0
  6
CONTINUOUS
 62
    7
 10
305.37364
 20
14.565807
 11
309.42307
 21
11.342797
  0
LINE
  8
0-0
  6
CONTINUOUS
 62
    7
 10
197.99357
 20
283.81597
 11
202.01187
 21
286.96427
  0
LINE
  8
0-0
  6
CONTINUOUS
 62
    7
 10
197.99357
 20
283.81597
 11
202.01528
 21
280.61504
  0
LINE
  8
0-0
  6
CONTINUOUS
 62
    7
 10
202.01528
 20
280.61504
 11
206.0613
 21
283.78511
  0
LINE
  8
0-0
  6
CONTINUOUS
 62
    7
 10
202.01187
 20
287.00814
 11
206.0613
 21
283.78511
  0
LINE
  8
0-0
  6
CONTINUOUS
 62
    7
 10
300.46854
 20
17.820111
 11
409.42775
 21
17.820111
  0
LINE
  8
0-0
  6
CONTINUOUS
 62
    7
 10
300.46854
 20
24.820113
 11
409.42775
 21
24.820113
  0
LINE
  8
0-0
  6
CONTINUOUS
 62
    7
 10
367.53723
 20
38.570111
 11
409.42775
 21
38.570111
  0
LINE
  8
0-0
  6
CONTINUOUS
 62
    7
 10
300.46854
 20
52.820118
 11
409.00914
 21
52.820118
  0
LINE
  8
0-0
  6
CONTINUOUS
 62
    7
 10
300.46854
 20
31.820105
 11
409.42092
 21
31.820105
  0
LINE
  8
0-0
  6
CONTINUOUS
 62
    7
 10
300.46854
 20
45.320115
 11
409.33333
 21
45.320115
  0
LINE
  8
0-0
  6
CONTINUOUS
 62
    7
 10
322.46852
 20
31.623189
 11
322.46852
 21
24.898774
  0
LINE
  8
0-0
  6
CONTINUOUS
 62
    7
 10
5.3320621
 20
283.78378
 11
197.99637
 21
283.78378
  0
LINE
  8
0-0
  6
CONTINUOUS
 62
    7
 10
206.05585
 20
283.78378
 11
409.45945
 21
283.78378
  0
LINE
  8
0-0
  6
CONTINUOUS
 62
    7
 10
409.45945
 20
283.78378
 11
409.45945
 21
4.0540435
  0
LINE
  8
0-0
  6
CONTINUOUS
 62
    7
 10
5.3320621
 20
4.0540435
 11
5.3320621
 21
283.78378
  0
LINE
  8
0-0
  6
CONTINUOUS
 62
    7
 10
5.3320621
 20
4.0540435
 11
409.45945
 21
4.0540435
  0
LINE
  8
0-0
  6
CONTINUOUS
 62
    7
 10
340.80495
 20
2104.9596
 11
353.19624
 21
2104.9596
  0
LINE
  8
0-0
  6
CONTINUOUS
 62
    7
 10
340.80495
 20
-1895.0404
 11
353.19624
 21
-1895.0404
  0
LINE
  8
0-0
  6
CONTINUOUS
 62
    7
 10
373.90277
 20
-1895.0404
 11
354.98973
 21
-1895.0404
  0
LINE
  8
0-0
  6
CONTINUOUS
 62
    7
 10
373.90277
 20
2104.9596
 11
354.98973
 21
2104.9596
  0
LINE
  8
0-0
  6
CONTINUOUS
 62
    7
 10
20.332062
 20
278.78378
 11
20.332062
 21
283.78378
  0
LINE
  8
0-0
  6
CONTINUOUS
 62
    7
 10
5.3320621
 20
278.78378
 11
20.332062
 21
278.78378
  0
LINE
  8
0-0
  6
CONTINUOUS
 62
    7
 10
405.4054
 20
64.756757
 11
275.40539
 21
64.756757
  0
LINE
  8
0-0
  6
CONTINUOUS
 62
    7
 10
275.40539
 20
128.75674
 11
405.4054
 21
128.75674
  0
LINE
  8
0-0
  6
CONTINUOUS
 62
    7
 10
275.40539
 20
124.75675
 11
405.4054
 21
124.75675
  0
LINE
  8
0-0
  6
CONTINUOUS
 62
    7
 10
275.40539
 20
116.75675
 11
405.4054
 21
116.75675
  0
LINE
  8
0-0
  6
CONTINUOUS
 62
    7
 10
275.40539
 20
112.75676
 11
405.4054
 21
112.75676
  0
LINE
  8
0-0
  6
CONTINUOUS
 62
    7
 10
275.40539
 20
108.75675
 11
405.4054
 21
108.75675
  0
LINE
  8
0-0
  6
CONTINUOUS
 62
    7
 10
290.40539
 20
104.75676
 11
405.4054
 21
104.75676
  0
LINE
  8
0-0
  6
CONTINUOUS
 62
    7
 10
290.40539
 20
100.75675
 11
405.4054
 21
100.75675
  0
LINE
  8
0-0
  6
CONTINUOUS
 62
    7
 10
275.40539
 20
96.756739
 11
405.4054
 21
96.756739
  0
LINE
  8
0-0
  6
CONTINUOUS
 62
    7
 10
290.40539
 20
92.756751
 11
405.4054
 21
92.756751
  0
LINE
  8
0-0
  6
CONTINUOUS
 62
    7
 10
290.40539
 20
88.756737
 11
405.4054
 21
88.756737
  0
LINE
  8
0-0
  6
CONTINUOUS
 62
    7
 10
275.40539
 20
84.756749
 11
405.4054
 21
84.756749
  0
LINE
  8
0-0
  6
CONTINUOUS
 62
    7
 10
305.40539
 20
80.756761
 11
405.4054
 21
80.756761
  0
LINE
  8
0-0
  6
CONTINUOUS
 62
    7
 10
275.40539
 20
76.756747
 11
405.4054
 21
76.756747
  0
LINE
  8
0-0
  6
CONTINUOUS
 62
    7
 10
275.40539
 20
72.756759
 11
405.4054
 21
72.756759
  0
LINE
  8
0-0
  6
CONTINUOUS
 62
    7
 10
275.40539
 20
68.756758
 11
405.4054
 21
68.756758
  0
LINE
  8
0-0
  6
CONTINUOUS
 62
    7
 10
290.40539
 20
84.756749
 11
290.40539
 21
108.75675
  0
LINE
  8
1-1
  6
CONTINUOUS
 62
    7
 10
555.23476
 20
103.49202
 11
555.23476
 21
103.03724
  0
LINE
  8
0-0
  6
CONTINUOUS
 62
    7
 10
275.40539
 20
64.756757
 11
275.40539
 21
128.75674
  0
LINE
  8
0-0
  6
CONTINUOUS
 62
    7
 10
305.40539
 20
64.756757
 11
305.40539
 21
124.75675
  0
LINE
  8
0-0
  6
CONTINUOUS
 62
    7
 10
405.4054
 20
64.756757
 11
405.4054
 21
128.75674
  0
LINE
  8
0-0
  6
CONTINUOUS
 62
    7
 10
275.40539
 20
120.75676
 11
405.4054
 21
120.75676
  0
LINE
  8
0-0
  6
CONTINUOUS
 62
    7
 10
338.4054
 20
112.75676
 11
338.4054
 21
120.75676
  0
LINE
  8
0-0
  6
CONTINUOUS
 62
    7
 10
371.40541
 20
112.75676
 11
371.40541
 21
120.75676
  0
LINE
  8
1-1
  6
CONTINUOUS
 62
    7
 10
104.78496
 20
50.306989
 11
104.97165
 21
50.378648
  0
LINE
  8
1-1
  6
CONTINUOUS
 62
    7
 10
104.78496
 20
50.306989
 11
105.21499
 21
49.186699
  0
LINE
  8
1-1
  6
CONTINUOUS
 62
    7
 10
104.97165
 20
50.378648
 11
105.4017
 21
49.25837
  0
LINE
  8
1-1
  6
CONTINUOUS
 62
    7
 10
105.21499
 20
49.186699
 11
105.4017
 21
49.25837
  0
LINE
  8
1-1
  6
CONTINUOUS
 62
    7
 10
106.84557
 20
44.938919
 11
107.03225
 21
45.010577
  0
LINE
  8
1-1
  6
CONTINUOUS
 62
    7
 10
106.84557
 20
44.938919
 11
107.27561
 21
43.81861
  0
LINE
  8
1-1
  6
CONTINUOUS
 62
    7
 10
107.03225
 20
45.010577
 11
107.4623
 21
43.890281
  0
LINE
  8
1-1
  6
CONTINUOUS
 62
    7
 10
107.27561
 20
43.81861
 11
107.4623
 21
43.890281
  0
LINE
  8
1-1
  6
CONTINUOUS
 62
    7
 10
151.27725
 20
68.15371
 11
151.46398
 21
68.225369
  0
LINE
  8
1-1
  6
CONTINUOUS
 62
    7
 10
151.27725
 20
68.15371
 11
151.70729
 21
67.033426
  0
LINE
  8
1-1
  6
CONTINUOUS
 62
    7
 10
151.46398
 20
68.225369
 11
151.89401
 21
67.105097
  0
LINE
  8
1-1
  6
CONTINUOUS
 62
    7
 10
151.70729
 20
67.033426
 11
151.89401
 21
67.105097
  0
LINE
  8
1-1
  6
CONTINUOUS
 62
    7
 10
153.33786
 20
62.785652
 11
153.52459
 21
62.857329
  0
LINE
  8
1-1
  6
CONTINUOUS
 62
    7
 10
153.33786
 20
62.785652
 11
153.76788
 21
61.665331
  0
LINE
  8
1-1
  6
CONTINUOUS
 62
    7
 10
153.52459
 20
62.857329
 11
153.95461
 21
61.737002
  0
LINE
  8
1-1
  6
CONTINUOUS
 62
    7
 10
153.76788
 20
61.665331
 11
153.95461
 21
61.737002
  0
LINE
  8
1-1
  6
CONTINUOUS
 62
    7
 10
151.46398
 20
68.225369
 11
151.89401
 21
67.105097
  0
LINE
  8
1-1
  6
CONTINUOUS
 62
    7
 10
153.52459
 20
62.857329
 11
153.95461
 21
61.737002
  0
LINE
  8
1-1
  6
CONTINUOUS
 62
    7
 10
105.32634
 20
49.470451
 11
151.60373
 21
67.234694
  0
LINE
  8
1-1
  6
CONTINUOUS
 62
    7
 10
107.38696
 20
44.102349
 11
153.63839
 21
61.856627
  0
LINE
  8
1-1
  6
CONTINUOUS
 62
    7
 10
107.13108
 20
44.807503
 11
153.36959
 21
62.556819
  0
LINE
  8
1-1
  6
CONTINUOUS
 62
    7
 10
106.0674
 20
49.75651
 11
107.83344
 21
45.155923
  0
LINE
  8
1-1
  6
CONTINUOUS
 62
    7
 10
146.78873
 20
65.305715
 11
151.86036
 21
62.032024
  0
LINE
  8
1-1
  6
CONTINUOUS
 62
    7
 10
138.15469
 20
62.02415
 11
143.09678
 21
58.680576
  0
LINE
  8
1-1
  6
CONTINUOUS
 62
    7
 10
105.05755
 20
50.170644
 11
151.33494
 21
67.934874
  0
LINE
  8
1-1
  6
CONTINUOUS
 62
    7
 10
125.72069
 20
52.097427
 11
127.44569
 21
57.956202
  0
LINE
  8
1-1
  6
CONTINUOUS
 62
    7
 10
119.89705
 20
54.894431
 11
124.87378
 21
51.657621
  0
LINE
  8
1-1
  6
CONTINUOUS
 62
    7
 10
110.93999
 20
51.625664
 11
115.96231
 21
48.227771
  0
LINE
  8
1-1
  6
CONTINUOUS
 62
    7
 10
117.06361
 20
48.660946
 11
118.68238
 21
54.558946
  0
LINE
  8
1-1
  6
CONTINUOUS
 62
    7
 10
150.87703
 20
66.96402
 11
152.66212
 21
62.313691
  0
LINE
  8
1-1
  6
CONTINUOUS
 62
    7
 10
144.11331
 20
59.20766
 11
145.63955
 21
64.841308
  0
LINE
  8
1-1
  6
CONTINUOUS
 62
    7
 10
135.64189
 20
55.807187
 11
136.96964
 21
61.590765
  0
LINE
  8
1-1
  6
CONTINUOUS
 62
    7
 10
151.46398
 20
68.225369
 11
151.65071
 21
68.297052
  0
LINE
  8
1-1
  6
CONTINUOUS
 62
    7
 10
151.46398
 20
68.225369
 11
151.89401
 21
67.105097
  0
LINE
  8
1-1
  6
CONTINUOUS
 62
    7
 10
151.65071
 20
68.297052
 11
152.08074
 21
67.176768
  0
LINE
  8
1-1
  6
CONTINUOUS
 62
    7
 10
151.89401
 20
67.105097
 11
152.08074
 21
67.176768
  0
LINE
  8
1-1
  6
CONTINUOUS
 62
    7
 10
153.52459
 20
62.857329
 11
153.71132
 21
62.928994
  0
LINE
  8
1-1
  6
CONTINUOUS
 62
    7
 10
153.52459
 20
62.857329
 11
153.95461
 21
61.737002
  0
LINE
  8
1-1
  6
CONTINUOUS
 62
    7
 10
153.71132
 20
62.928994
 11
154.14136
 21
61.808691
  0
LINE
  8
1-1
  6
CONTINUOUS
 62
    7
 10
153.95461
 20
61.737002
 11
154.14136
 21
61.808691
  0
LINE
  8
1-1
  6
CONTINUOUS
 62
    7
 10
200.0168
 20
80.704019
 11
200.44685
 21
79.583723
  0
LINE
  8
1-1
  6
CONTINUOUS
 62
    7
 10
200.20357
 20
80.775714
 11
200.63362
 21
79.655431
  0
LINE
  8
1-1
  6
CONTINUOUS
 62
    7
 10
198.14299
 20
86.143773
 11
198.57299
 21
85.023514
  0
LINE
  8
1-1
  6
CONTINUOUS
 62
    7
 10
200.20357
 20
80.775714
 11
200.63362
 21
79.655431
  0
LINE
  8
1-1
  6
CONTINUOUS
 62
    7
 10
154.06596
 20
62.020735
 11
200.31736
 21
79.775006
  0
LINE
  8
1-1
  6
CONTINUOUS
 62
    7
 10
153.81008
 20
62.72592
 11
200.04857
 21
80.475199
  0
LINE
  8
1-1
  6
CONTINUOUS
 62
    7
 10
152.74641
 20
67.674889
 11
154.51243
 21
63.074327
  0
LINE
  8
1-1
  6
CONTINUOUS
 62
    7
 10
193.46771
 20
83.224131
 11
198.53934
 21
79.950404
  0
LINE
  8
1-1
  6
CONTINUOUS
 62
    7
 10
184.83373
 20
79.942535
 11
189.77571
 21
76.598955
  0
LINE
  8
1-1
  6
CONTINUOUS
 62
    7
 10
166.57609
 20
72.812829
 11
171.55282
 21
69.576019
  0
LINE
  8
1-1
  6
CONTINUOUS
 62
    7
 10
155.00199
 20
63.243663
 11
156.60838
 21
69.173199
  0
LINE
  8
1-1
  6
CONTINUOUS
 62
    7
 10
157.619
 20
69.544075
 11
162.64135
 21
66.146181
  0
LINE
  8
1-1
  6
CONTINUOUS
 62
    7
 10
163.74262
 20
66.57935
 11
165.36139
 21
72.477362
  0
LINE
  8
1-1
  6
CONTINUOUS
 62
    7
 10
175.90014
 20
76.614309
 11
181.0856
 21
73.22593
  0
LINE
  8
1-1
  6
CONTINUOUS
 62
    7
 10
190.79232
 20
77.126064
 11
192.3185
 21
82.759687
  0
LINE
  8
1-1
  6
CONTINUOUS
 62
    7
 10
182.3209
 20
73.725585
 11
183.64865
 21
79.509169
  0
LINE
  8
1-1
  6
CONTINUOUS
 62
    7
 10
200.43289
 20
79.578366
 11
200.82036
 21
79.727089
  0
LINE
  8
1-1
  6
CONTINUOUS
 62
    7
 10
197.95622
 20
86.07209
 11
198.32966
 21
86.215431
  0
LINE
  8
1-1
  6
CONTINUOUS
 62
    7
 10
198.32966
 20
86.215431
 11
198.75971
 21
85.09516
  0
LINE
  8
1-1
  6
CONTINUOUS
 62
    7
 10
200.21495
 20
80.746022
 11
200.62854
 21
79.668644
  0
LINE
  8
1-1
  6
CONTINUOUS
 62
    7
 10
198.14284
 20
86.143996
 11
198.57299
 21
85.023514
  0
LINE
  8
1-1
  6
CONTINUOUS
 62
    7
 10
197.95622
 20
86.07209
 11
198.38627
 21
84.951806
  0
LINE
  8
1-1
  6
CONTINUOUS
 62
    7
 10
198.75971
 20
85.09516
 11
198.38627
 21
84.951806
  0
LINE
  8
1-1
  6
CONTINUOUS
 62
    7
 10
152.00532
 20
67.388849
 11
198.30266
 21
85.160719
  0
LINE
  8
1-1
  6
CONTINUOUS
 62
    7
 10
151.73656
 20
68.089054
 11
198.03387
 21
85.860949
  0
LINE
  8
1-1
  6
CONTINUOUS
 62
    7
 10
198.14284
 20
86.143996
 11
198.56908
 21
85.033634
  0
LINE
  8
1-1
  6
CONTINUOUS
 62
    7
 10
199.44111
 20
85.552491
 11
201.20827
 21
80.948799
  0
LINE
  8
1-1
  6
CONTINUOUS
 62
    7
 10
72.796696
 20
33.07215
 11
107.08558
 21
43.993995
  0
LINE
  8
1-1
  6
CONTINUOUS
 62
    7
 10
76.801843
 20
35.162522
 11
105.1171
 21
49.392774
  0
LINE
  8
1-1
  6
CONTINUOUS
 62
    7
 10
76.809143
 20
35.137339
 11
106.85798
 21
44.708626
  0
LINE
  8
1-1
  6
CONTINUOUS
 62
    7
 10
226.40585
 20
93.613165
 11
229.31876
 21
93.196798
  0
LINE
  8
1-1
  6
CONTINUOUS
 62
    7
 10
211.65626
 20
85.547319
 11
213.97863
 21
89.937594
  0
LINE
  8
1-1
  6
CONTINUOUS
 62
    7
 10
205.3546
 20
87.283159
 11
210.29415
 21
84.834816
  0
LINE
  8
1-1
  6
CONTINUOUS
 62
    7
 10
201.7831
 20
81.195546
 11
203.9966
 21
86.856127
  0
LINE
  8
1-1
  6
CONTINUOUS
 62
    7
 10
104.22942
 20
48.963775
 11
105.96622
 21
44.439195
  0
LINE
  8
1-1
  6
CONTINUOUS
 62
    7
 10
78.853293
 20
35.846848
 11
78.29826
 21
35.864113
  0
LINE
  8
1-1
  6
CONTINUOUS
 62
    7
 10
105.43384
 20
44.304427
 11
100.69767
 21
47.087698
  0
LINE
  8
1-1
  6
CONTINUOUS
 62
    7
 10
99.636171
 20
46.638131
 11
98.092308
 21
42.058348
  0
LINE
  8
1-1
  6
CONTINUOUS
 62
    7
 10
96.771486
 20
41.431076
 11
92.80583
 21
43.196701
  0
LINE
  8
1-1
  6
CONTINUOUS
 62
    7
 10
91.404306
 20
42.533401
 11
89.692567
 21
39.24565
  0
LINE
  8
1-1
  6
CONTINUOUS
 62
    7
 10
88.299122
 20
40.933536
 11
88.982885
 21
39.152217
  0
LINE
  8
1-1
  6
CONTINUOUS
 62
    7
 10
88.211999
 20
38.722061
 11
85.233009
 21
39.420033
  0
LINE
  8
1-1
  6
CONTINUOUS
 62
    7
 10
82.90945
 20
38.221045
 11
81.607471
 21
36.640987
  0
LINE
  8
1-1
  6
CONTINUOUS
 62
    7
 10
245.85818
 20
100.4699
 11
246.21652
 21
99.536342
  0
LINE
  8
1-1
  6
CONTINUOUS
 62
    7
 10
245.85818
 20
100.4699
 11
246.32495
 21
100.64911
  0
LINE
  8
1-1
  6
CONTINUOUS
 62
    7
 10
246.21652
 20
99.536342
 11
246.68334
 21
99.71555
  0
LINE
  8
1-1
  6
CONTINUOUS
 62
    7
 10
246.35004
 20
100.58374
 11
246.32495
 21
100.64911
  0
LINE
  8
1-1
  6
CONTINUOUS
 62
    7
 10
246.65825
 20
99.780887
 11
246.68334
 21
99.71555
  0
LINE
  8
1-1
  6
CONTINUOUS
 62
    7
 10
246.30431
 20
99.698526
 11
246.59362
 21
99.809627
  0
LINE
  8
1-1
  6
CONTINUOUS
 62
    7
 10
246.00308
 20
100.34345
 11
246.23963
 21
99.727291
  0
LINE
  8
1-1
  6
CONTINUOUS
 62
    7
 10
246.03188
 20
100.40808
 11
246.32129
 21
100.51917
  0
LINE
  8
1-1
  6
CONTINUOUS
 62
    7
 10
197.55878
 20
84.875174
 11
199.34109
 21
80.232064
  0
LINE
  8
1-1
  6
CONTINUOUS
 62
    7
 10
200.0168
 20
80.704019
 11
200.39026
 21
80.847361
  0
LINE
  8
1-1
  6
CONTINUOUS
 62
    7
 10
200.39026
 20
80.847361
 11
200.82036
 21
79.727089
  0
LINE
  8
1-1
  6
CONTINUOUS
 62
    7
 10
198.678
 20
85.307946
 11
241.79146
 21
98.446555
  0
LINE
  8
1-1
  6
CONTINUOUS
 62
    7
 10
200.46845
 20
80.643681
 11
243.81581
 21
99.318731
  0
LINE
  8
1-1
  6
CONTINUOUS
 62
    7
 10
240.20121
 20
97.961969
 11
240.26787
 21
97.788427
  0
LINE
  8
1-1
  6
CONTINUOUS
 62
    7
 10
219.87274
 20
91.622722
 11
220.73557
 21
89.375188
  0
LINE
  8
1-1
  6
CONTINUOUS
 62
    7
 10
221.74755
 20
89.811177
 11
223.90532
 21
92.857607
  0
LINE
  8
1-1
  6
CONTINUOUS
 62
    7
 10
215.7932
 20
90.479537
 11
219.98523
 21
89.051958
  0
LINE
  8
1-1
  6
CONTINUOUS
 62
    7
 10
231.99249
 20
94.244854
 11
233.9003
 21
96.041786
  0
LINE
  8
1-1
  6
CONTINUOUS
 62
    7
 10
234.85933
 20
96.334025
 11
235.14715
 21
95.584072
  0
LINE
  8
1-1
  6
CONTINUOUS
 62
    7
 10
244.8749
 20
100.7587
 11
244.87179
 21
100.81861
  0
LINE
  8
1-1
  6
CONTINUOUS
 62
    7
 10
128.4742
 20
58.35505
 11
130.26569
 21
53.688057
  0
LINE
  8
1-1
  6
CONTINUOUS
 62
    7
 10
76.531342
 20
35.865962
 11
77.080052
 21
34.436509
  0
LINE
  8
1-1
  6
CONTINUOUS
 62
    7
 10
72.469036
 20
33.824417
 11
104.78032
 21
50.062915
  0
LINE
  8
1-1
  6
CONTINUOUS
 62
    7
 10
175.1532
 20
76.273448
 11
176.94472
 21
71.606461
  0
LINE
  8
1-1
  6
CONTINUOUS
 62
    7
 10
172.34866
 20
69.84219
 11
174.12462
 21
75.874587
  0
LINE
  8
1-1
  6
CONTINUOUS
 62
    7
 10
129.27236
 20
58.662475
 11
134.40661
 21
55.307526
  0
LINE
  8
1-1
  6
CONTINUOUS
 62
    7
 10
108.32297
 20
45.325259
 11
109.92411
 21
51.235353
  0
LINE
  8
1-1
  6
CENTER1
 62
    2
 10
244.7303
 20
100.11536
 11
245.16139
 21
98.992284
  0
LINE
  8
1-1
  6
CENTER1
 62
    2
 10
72.109543
 20
33.578672
 11
72.393814
 21
32.838159
  0
LINE
  8
1-1
  6
CENTER1
 62
    2
 10
71.91842
 20
33.165132
 11
246.37642
 21
100.13331
  0
LINE
  8
1-1
  6
CONTINUOUS
 62
    7
 10
59.429007
 20
18.851524
 11
59.767257
 21
20.654593
  0
LINE
  8
1-1
  6
CONTINUOUS
 62
    7
 10
59.711076
 20
15.920253
 11
59.429007
 21
18.851524
  0
LINE
  8
1-1
  6
CONTINUOUS
 62
    7
 10
59.437383
 20
18.797792
 11
59.429007
 21
18.851524
  0
LINE
  8
1-1
  6
CONTINUOUS
 62
    7
 10
65.924364
 20
15.910182
 11
61.524364
 21
15.910182
  0
LINE
  8
1-1
  6
CONTINUOUS
 62
    7
 10
61.524364
 20
15.910182
 11
61.524364
 21
16.100191
  0
LINE
  8
1-1
  6
CONTINUOUS
 62
    7
 10
65.924364
 20
16.100191
 11
61.524364
 21
16.100191
  0
LINE
  8
1-1
  6
CONTINUOUS
 62
    7
 10
61.224368
 20
23.270181
 11
61.224368
 21
23.46019
  0
LINE
  8
1-1
  6
CONTINUOUS
 62
    7
 10
65.924364
 20
23.270181
 11
61.224368
 21
23.270181
  0
LINE
  8
1-1
  6
CONTINUOUS
 62
    7
 10
61.224368
 20
23.270181
 11
61.624355
 21
22.960188
  0
LINE
  8
1-1
  6
CONTINUOUS
 62
    7
 10
65.924364
 20
22.960188
 11
61.624355
 21
22.960188
  0
LINE
  8
1-1
  6
CONTINUOUS
 62
    7
 10
62.119383
 20
16.802054
 11
62.3497
 21
17.532719
  0
LINE
  8
1-1
  6
CONTINUOUS
 62
    7
 10
62.119383
 20
16.802054
 11
62.704108
 21
16.326697
  0
LINE
  8
1-1
  6
CONTINUOUS
 62
    7
 10
65.924364
 20
15.910182
 11
70.324364
 21
15.910182
  0
LINE
  8
1-1
  6
CONTINUOUS
 62
    7
 10
70.324364
 20
15.910182
 11
70.324364
 21
16.100191
  0
LINE
  8
1-1
  6
CONTINUOUS
 62
    7
 10
65.924364
 20
16.100191
 11
70.324364
 21
16.100191
  0
LINE
  8
1-1
  6
CONTINUOUS
 62
    7
 10
70.62436
 20
23.270181
 11
70.62436
 21
23.46019
  0
LINE
  8
1-1
  6
CONTINUOUS
 62
    7
 10
65.924364
 20
23.270181
 11
70.62436
 21
23.270181
  0
LINE
  8
1-1
  6
CONTINUOUS
 62
    7
 10
70.62436
 20
23.270181
 11
70.224373
 21
22.960188
  0
LINE
  8
1-1
  6
CONTINUOUS
 62
    7
 10
65.924364
 20
22.960188
 11
70.224373
 21
22.960188
  0
LINE
  8
1-1
  6
CONTINUOUS
 62
    7
 10
43.367663
 20
12.28217
 11
43.367663
 21
12.162162
  0
LINE
  8
1-1
  6
CONTINUOUS
 62
    7
 10
41.599891
 20
12.28217
 11
41.599891
 21
12.162162
  0
LINE
  8
1-1
  6
CONTINUOUS
 62
    7
 10
41.599891
 20
12.162162
 11
45.135423
 21
12.162162
  0
LINE
  8
1-1
  6
CONTINUOUS
 62
    7
 10
45.135423
 20
12.28217
 11
45.135423
 21
12.162162
  0
LINE
  8
1-1
  6
CONTINUOUS
 62
    7
 10
41.599891
 20
12.28217
 11
45.135423
 21
12.28217
  0
LINE
  8
1-1
  6
CONTINUOUS
 62
    7
 10
44.071234
 20
13.86216
 11
44.13083
 21
13.86216
  0
LINE
  8
1-1
  6
CONTINUOUS
 62
    7
 10
44.071234
 20
13.462161
 11
44.13083
 21
13.462161
  0
LINE
  8
1-1
  6
CONTINUOUS
 62
    7
 10
43.986387
 20
14.162156
 11
44.071234
 21
14.162156
  0
LINE
  8
1-1
  6
CONTINUOUS
 62
    7
 10
44.778336
 20
12.462158
 11
44.778336
 21
12.28217
  0
LINE
  8
1-1
  6
CONTINUOUS
 62
    7
 10
44.778336
 20
12.462158
 11
44.396877
 21
13.845433
  0
LINE
  8
1-1
  6
CONTINUOUS
 62
    7
 10
43.636383
 20
13.662167
 11
43.636383
 21
12.28217
  0
LINE
  8
1-1
  6
CONTINUOUS
 62
    7
 10
43.721236
 20
13.662167
 11
43.721236
 21
12.28217
  0
LINE
  8
1-1
  6
CONTINUOUS
 62
    7
 10
41.956978
 20
12.462158
 11
41.956978
 21
12.28217
  0
LINE
  8
1-1
  6
CONTINUOUS
 62
    7
 10
42.041831
 20
12.462158
 11
41.956978
 21
12.462158
  0
LINE
  8
1-1
  6
CONTINUOUS
 62
    7
 10
42.041831
 20
12.462158
 11
42.041831
 21
12.282158
  0
LINE
  8
1-1
  6
CONTINUOUS
 62
    7
 10
41.956978
 20
12.462158
 11
42.338444
 21
13.845433
  0
LINE
  8
1-1
  6
CONTINUOUS
 62
    7
 10
44.072632
 20
13.86216
 11
44.13083
 21
13.86216
  0
LINE
  8
1-1
  6
CONTINUOUS
 62
    7
 10
43.098944
 20
13.462161
 11
43.098944
 21
12.28217
  0
LINE
  8
1-1
  6
CONTINUOUS
 62
    7
 10
60.814447
 20
19.185667
 11
60.588473
 21
20.634056
  0
LINE
  8
1-1
  6
CONTINUOUS
 62
    7
 10
59.563354
 20
18.851524
 11
59.901605
 21
20.654593
  0
LINE
  8
1-1
  6
CONTINUOUS
 62
    7
 10
60.814447
 20
19.185667
 11
60.270203
 21
15.967613
  0
LINE
  8
1-1
  6
CONTINUOUS
 62
    7
 10
59.845423
 20
15.920253
 11
59.563354
 21
18.851524
  0
LINE
  8
1-1
  6
CONTINUOUS
 62
    7
 10
59.571743
 20
18.797792
 11
59.563354
 21
18.851524
  0
LINE
  8
1-1
  6
CONTINUOUS
 62
    7
 10
58.248162
 20
18.851524
 11
59.563354
 21
18.851524
  0
LINE
  8
1-1
  6
CONTINUOUS
 62
    7
 10
58.113815
 20
18.851524
 11
58.452065
 21
20.654593
  0
LINE
  8
1-1
  6
CONTINUOUS
 62
    7
 10
58.122191
 20
18.797792
 11
58.113815
 21
18.851524
  0
LINE
  8
1-1
  6
CONTINUOUS
 62
    7
 10
58.248162
 20
18.851524
 11
58.586412
 21
20.654593
  0
LINE
  8
1-1
  6
CONTINUOUS
 62
    7
 10
58.25655
 20
18.797792
 11
58.248162
 21
18.851524
  0
LINE
  8
1-1
  6
CONTINUOUS
 62
    7
 10
62.526669
 20
16.760187
 11
62.526669
 21
20.760188
  0
LINE
  8
1-1
  6
CONTINUOUS
 62
    7
 10
62.59031
 20
20.760188
 11
62.59031
 21
16.760187
  0
LINE
  8
1-1
  6
CONTINUOUS
 62
    7
 10
62.880273
 20
16.260186
 11
63.484261
 21
16.260186
  0
LINE
  8
1-1
  6
CONTINUOUS
 62
    7
 10
63.484261
 20
21.26019
 11
63.484261
 21
16.260186
  0
LINE
  8
1-1
  6
CONTINUOUS
 62
    7
 10
63.484261
 20
21.26019
 11
62.880273
 21
21.26019
  0
LINE
  8
1-1
  6
CONTINUOUS
 62
    7
 10
61.624355
 20
21.26019
 11
61.624355
 21
23.270181
  0
LINE
  8
1-1
  6
CONTINUOUS
 62
    7
 10
62.204762
 20
21.227911
 11
62.910473
 21
21.290501
  0
LINE
  8
1-1
  6
CONTINUOUS
 62
    7
 10
62.204762
 20
21.227911
 11
61.356229
 21
21.227911
  0
LINE
  8
1-1
  6
CONTINUOUS
 62
    7
 10
61.356229
 20
21.227911
 11
62.061952
 21
21.290501
  0
LINE
  8
1-1
  6
CONTINUOUS
 62
    7
 10
62.061952
 20
21.290501
 11
62.910473
 21
21.290501
  0
LINE
  8
1-1
  6
CONTINUOUS
 62
    7
 10
62.267352
 20
20.229875
 11
62.204762
 21
21.227911
  0
LINE
  8
1-1
  6
CONTINUOUS
 62
    7
 10
62.267352
 20
20.229875
 11
61.418819
 21
20.229875
  0
LINE
  8
1-1
  6
CONTINUOUS
 62
    7
 10
62.943902
 20
21.010189
 11
62.982799
 21
21.010189
  0
LINE
  8
1-1
  6
CONTINUOUS
 62
    7
 10
62.948566
 20
20.510187
 11
62.982799
 21
20.510187
  0
LINE
  8
1-1
  6
CONTINUOUS
 62
    7
 10
59.497164
 20
20.994031
 11
60.202887
 21
21.056633
  0
LINE
  8
1-1
  6
CONTINUOUS
 62
    7
 10
58.780863
 20
20.994031
 11
59.497164
 21
20.994031
  0
LINE
  8
1-1
  6
CONTINUOUS
 62
    7
 10
58.780863
 20
20.994031
 11
59.486586
 21
21.056633
  0
LINE
  8
1-1
  6
CONTINUOUS
 62
    7
 10
59.497164
 20
21.056633
 11
60.202887
 21
21.056633
  0
LINE
  8
1-1
  6
CONTINUOUS
 62
    7
 10
58.843453
 20
19.996007
 11
59.559754
 21
19.996007
  0
LINE
  8
1-1
  6
CONTINUOUS
 62
    7
 10
59.497164
 20
20.994031
 11
59.559754
 21
19.996007
  0
LINE
  8
1-1
  6
CONTINUOUS
 62
    7
 10
62.910473
 20
21.290501
 11
62.912378
 21
21.26019
  0
LINE
  8
1-1
  6
CONTINUOUS
 62
    7
 10
62.267352
 20
20.229875
 11
62.526669
 21
20.252875
  0
LINE
  8
1-1
  6
CONTINUOUS
 62
    7
 10
60.109033
 20
21.026322
 11
60.243368
 21
21.026322
  0
LINE
  8
1-1
  6
CONTINUOUS
 62
    7
 10
58.793841
 20
21.026322
 11
58.928176
 21
21.026322
  0
LINE
  8
1-1
  6
CONTINUOUS
 62
    7
 10
59.499255
 20
19.185667
 11
59.372826
 21
19.996007
  0
LINE
  8
1-1
  6
CONTINUOUS
 62
    7
 10
60.202887
 20
21.056633
 11
60.204793
 21
21.026322
  0
LINE
  8
1-1
  6
CONTINUOUS
 62
    7
 10
59.559754
 20
19.996007
 11
59.645133
 21
20.003579
  0
LINE
  8
1-1
  6
CONTINUOUS
 62
    7
 10
61.985036
 20
16.802054
 11
62.21534
 21
17.532719
  0
LINE
  8
1-1
  6
CONTINUOUS
 62
    7
 10
61.985036
 20
16.802054
 11
62.569761
 21
16.326697
  0
LINE
  8
1-1
  6
CONTINUOUS
 62
    7
 10
62.21534
 20
17.532719
 11
62.3497
 21
17.532719
  0
LINE
  8
1-1
  6
CONTINUOUS
 62
    7
 10
61.985036
 20
16.802054
 11
62.119383
 21
16.802054
  0
LINE
  8
1-1
  6
CONTINUOUS
 62
    7
 10
62.745925
 20
16.260186
 11
62.880273
 21
16.260186
  0
LINE
  8
1-1
  6
CONTINUOUS
 62
    7
 10
62.3497
 20
17.532719
 11
62.526669
 21
17.450569
  0
LINE
  8
1-1
  6
CONTINUOUS
 62
    7
 10
59.845423
 20
15.920253
 11
59.711076
 21
15.920253
  0
LINE
  8
1-1
  6
CONTINUOUS
 62
    7
 10
60.814447
 20
19.185667
 11
62.526669
 21
17.664753
  0
LINE
  8
1-1
  6
CONTINUOUS
 62
    7
 10
61.956172
 20
20.229875
 11
61.956172
 21
18.17151
  0
LINE
  8
1-1
  6
CONTINUOUS
 62
    7
 10
58.93148
 20
20.225706
 11
59.154683
 21
20.245501
  0
LINE
  8
1-1
  6
CONTINUOUS
 62
    7
 10
60.628706
 20
20.376248
 11
61.791562
 21
20.479381
  0
LINE
  8
1-1
  6
CONTINUOUS
 62
    7
 10
58.93148
 20
20.726697
 11
59.14361
 21
20.745515
  0
LINE
  8
1-1
  6
CONTINUOUS
 62
    7
 10
60.502784
 20
20.866068
 11
61.769429
 21
20.978418
  0
LINE
  8
1-1
  6
CONTINUOUS
 62
    7
 10
58.843453
 20
19.996007
 11
58.825909
 21
20.275664
  0
LINE
  8
1-1
  6
CONTINUOUS
 62
    7
 10
58.802601
 20
20.647343
 11
58.780863
 21
20.994031
  0
LINE
  8
1-1
  6
CONTINUOUS
 62
    7
 10
61.062221
 20
20.4147
 11
61.062221
 21
18.965569
  0
LINE
  8
1-1
  6
CONTINUOUS
 62
    7
 10
60.99858
 20
19.022109
 11
60.99858
 21
20.409059
  0
LINE
  8
1-1
  6
CONTINUOUS
 62
    7
 10
61.418819
 20
20.229875
 11
61.405321
 21
20.445135
  0
LINE
  8
1-1
  6
CONTINUOUS
 62
    7
 10
61.374069
 20
20.943343
 11
61.356229
 21
21.227911
  0
LINE
  8
1-1
  6
CONTINUOUS
 62
    7
 10
61.624355
 20
21.26019
 11
61.352183
 21
21.26019
  0
LINE
  8
1-1
  6
CONTINUOUS
 62
    7
 10
61.956172
 20
20.229875
 11
61.956172
 21
18.17151
  0
LINE
  8
1-1
  6
CONTINUOUS
 62
    7
 10
60.243368
 20
20.776309
 11
60.345895
 21
20.776309
  0
LINE
  8
1-1
  6
CONTINUOUS
 62
    7
 10
60.243368
 20
20.276307
 11
60.345895
 21
20.276307
  0
LINE
  8
1-1
  6
CONTINUOUS
 62
    7
 10
59.429007
 20
18.851524
 11
43.775011
 21
14.568007
  0
LINE
  8
1-1
  6
CONTINUOUS
 62
    7
 10
43.6045
 20
13.662167
 11
43.6045
 21
14.2775
  0
LINE
  8
1-1
  6
CONTINUOUS
 62
    7
 10
44.488089
 20
14.20787
 11
62.908085
 21
16.261745
  0
LINE
  8
1-1
  6
CONTINUOUS
 62
    7
 10
42.367054
 20
13.662167
 11
42.367054
 21
14.2775
  0
LINE
  8
1-1
  6
CONTINUOUS
 62
    7
 10
42.505868
 20
14.559581
 11
58.248162
 21
18.851524
  0
LINE
  8
1-1
  6
CONTINUOUS
 62
    7
 10
42.720658
 20
13.162165
 11
42.805554
 21
13.162165
  0
LINE
  8
1-1
  6
CONTINUOUS
 62
    7
 10
43.335558
 20
14.20787
 11
43.24022
 21
13.86216
  0
LINE
  8
1-1
  6
CONTINUOUS
 62
    7
 10
43.250649
 20
14.20787
 11
43.155323
 21
13.86216
  0
LINE
  8
1-1
  6
CONTINUOUS
 62
    7
 10
42.041831
 20
12.462158
 11
42.372361
 21
13.660694
  0
LINE
  8
1-1
  6
CONTINUOUS
 62
    7
 10
42.74894
 20
13.462161
 11
43.549111
 21
13.462161
  0
LINE
  8
1-1
  6
CONTINUOUS
 62
    7
 10
42.74894
 20
13.86216
 11
43.519591
 21
13.86216
  0
LINE
  8
1-1
  6
CONTINUOUS
 62
    7
 10
44.488089
 20
14.20787
 11
44.388767
 21
13.847672
  0
LINE
  8
1-1
  6
CONTINUOUS
 62
    7
 10
43.6045
 20
14.20787
 11
42.368508
 21
14.20787
  0
LINE
  8
1-1
  6
CONTINUOUS
 62
    7
 10
42.45195
 20
13.662167
 11
42.45195
 21
14.20787
  0
LINE
  8
1-1
  6
CONTINUOUS
 62
    7
 10
43.519591
 20
13.662167
 11
43.519591
 21
14.20787
  0
LINE
  8
1-1
  6
CONTINUOUS
 62
    7
 10
72.419721
 20
18.851524
 11
72.081471
 21
20.654593
  0
LINE
  8
1-1
  6
CONTINUOUS
 62
    7
 10
72.137652
 20
15.920253
 11
72.419721
 21
18.851524
  0
LINE
  8
1-1
  6
CONTINUOUS
 62
    7
 10
72.411345
 20
18.797792
 11
72.419721
 21
18.851524
  0
LINE
  8
1-1
  6
CONTINUOUS
 62
    7
 10
70.324364
 20
15.910182
 11
70.324364
 21
16.100191
  0
LINE
  8
1-1
  6
CONTINUOUS
 62
    7
 10
69.729345
 20
16.802054
 11
69.499028
 21
17.532719
  0
LINE
  8
1-1
  6
CONTINUOUS
 62
    7
 10
69.729345
 20
16.802054
 11
69.14462
 21
16.326697
  0
LINE
  8
1-1
  6
CONTINUOUS
 62
    7
 10
88.481077
 20
12.28217
 11
88.481077
 21
12.162162
  0
LINE
  8
1-1
  6
CONTINUOUS
 62
    7
 10
90.248837
 20
12.28217
 11
90.248837
 21
12.162162
  0
LINE
  8
1-1
  6
CONTINUOUS
 62
    7
 10
90.248837
 20
12.162162
 11
86.713293
 21
12.162162
  0
LINE
  8
1-1
  6
CONTINUOUS
 62
    7
 10
86.713293
 20
12.28217
 11
86.713293
 21
12.162162
  0
LINE
  8
1-1
  6
CONTINUOUS
 62
    7
 10
90.248837
 20
12.28217
 11
86.713293
 21
12.28217
  0
LINE
  8
1-1
  6
CONTINUOUS
 62
    7
 10
87.777494
 20
13.86216
 11
87.717898
 21
13.86216
  0
LINE
  8
1-1
  6
CONTINUOUS
 62
    7
 10
87.777494
 20
13.462161
 11
87.717898
 21
13.462161
  0
LINE
  8
1-1
  6
CONTINUOUS
 62
    7
 10
87.862354
 20
14.162156
 11
87.777494
 21
14.162156
  0
LINE
  8
1-1
  6
CONTINUOUS
 62
    7
 10
87.070398
 20
12.462158
 11
87.070398
 21
12.28217
  0
LINE
  8
1-1
  6
CONTINUOUS
 62
    7
 10
87.070398
 20
12.462158
 11
87.451851
 21
13.845433
  0
LINE
  8
1-1
  6
CONTINUOUS
 62
    7
 10
88.212345
 20
13.662167
 11
88.212345
 21
12.28217
  0
LINE
  8
1-1
  6
CONTINUOUS
 62
    7
 10
88.127486
 20
13.662167
 11
88.127486
 21
12.28217
  0
LINE
  8
1-1
  6
CONTINUOUS
 62
    7
 10
89.891756
 20
12.462158
 11
89.891756
 21
12.28217
  0
LINE
  8
1-1
  6
CONTINUOUS
 62
    7
 10
89.806897
 20
12.462158
 11
89.891756
 21
12.462158
  0
LINE
  8
1-1
  6
CONTINUOUS
 62
    7
 10
89.806897
 20
12.462158
 11
89.806897
 21
12.282158
  0
LINE
  8
1-1
  6
CONTINUOUS
 62
    7
 10
89.891756
 20
12.462158
 11
89.510278
 21
13.845433
  0
LINE
  8
1-1
  6
CONTINUOUS
 62
    7
 10
87.776096
 20
13.86216
 11
87.717898
 21
13.86216
  0
LINE
  8
1-1
  6
CONTINUOUS
 62
    7
 10
88.749797
 20
13.462161
 11
88.749797
 21
12.28217
  0
LINE
  8
1-1
  6
CONTINUOUS
 62
    7
 10
71.034281
 20
19.185667
 11
71.260255
 21
20.634056
  0
LINE
  8
1-1
  6
CONTINUOUS
 62
    7
 10
72.285374
 20
18.851524
 11
71.947124
 21
20.654593
  0
LINE
  8
1-1
  6
CONTINUOUS
 62
    7
 10
71.034281
 20
19.185667
 11
71.578525
 21
15.967613
  0
LINE
  8
1-1
  6
CONTINUOUS
 62
    7
 10
72.003305
 20
15.920253
 11
72.285374
 21
18.851524
  0
LINE
  8
1-1
  6
CONTINUOUS
 62
    7
 10
72.276986
 20
18.797792
 11
72.285374
 21
18.851524
  0
LINE
  8
1-1
  6
CONTINUOUS
 62
    7
 10
73.600566
 20
18.851524
 11
72.285374
 21
18.851524
  0
LINE
  8
1-1
  6
CONTINUOUS
 62
    7
 10
73.734913
 20
18.851524
 11
73.396663
 21
20.654593
  0
LINE
  8
1-1
  6
CONTINUOUS
 62
    7
 10
73.726537
 20
18.797792
 11
73.734913
 21
18.851524
  0
LINE
  8
1-1
  6
CONTINUOUS
 62
    7
 10
73.600566
 20
18.851524
 11
73.262316
 21
20.654593
  0
LINE
  8
1-1
  6
CONTINUOUS
 62
    7
 10
73.592178
 20
18.797792
 11
73.600566
 21
18.851524
  0
LINE
  8
1-1
  6
CONTINUOUS
 62
    7
 10
69.322059
 20
16.760187
 11
69.322059
 21
20.760188
  0
LINE
  8
1-1
  6
CONTINUOUS
 62
    7
 10
69.258418
 20
20.760188
 11
69.258418
 21
16.760187
  0
LINE
  8
1-1
  6
CONTINUOUS
 62
    7
 10
68.968455
 20
16.260186
 11
68.364467
 21
16.260186
  0
LINE
  8
1-1
  6
CONTINUOUS
 62
    7
 10
68.364467
 20
21.26019
 11
68.364467
 21
16.260186
  0
LINE
  8
1-1
  6
CONTINUOUS
 62
    7
 10
68.364467
 20
21.26019
 11
68.968455
 21
21.26019
  0
LINE
  8
1-1
  6
CONTINUOUS
 62
    7
 10
69.643966
 20
21.227911
 11
68.938255
 21
21.290501
  0
LINE
  8
1-1
  6
CONTINUOUS
 62
    7
 10
69.643966
 20
21.227911
 11
70.492499
 21
21.227911
  0
LINE
  8
1-1
  6
CONTINUOUS
 62
    7
 10
70.492499
 20
21.227911
 11
69.786776
 21
21.290501
  0
LINE
  8
1-1
  6
CONTINUOUS
 62
    7
 10
69.786776
 20
21.290501
 11
68.938255
 21
21.290501
  0
LINE
  8
1-1
  6
CONTINUOUS
 62
    7
 10
69.581376
 20
20.229875
 11
69.643966
 21
21.227911
  0
LINE
  8
1-1
  6
CONTINUOUS
 62
    7
 10
69.581376
 20
20.229875
 11
70.429909
 21
20.229875
  0
LINE
  8
1-1
  6
CONTINUOUS
 62
    7
 10
68.904826
 20
21.010189
 11
68.865929
 21
21.010189
  0
LINE
  8
1-1
  6
CONTINUOUS
 62
    7
 10
68.900162
 20
20.510187
 11
68.865929
 21
20.510187
  0
LINE
  8
1-1
  6
CONTINUOUS
 62
    7
 10
72.351564
 20
20.994031
 11
71.645841
 21
21.056633
  0
LINE
  8
1-1
  6
CONTINUOUS
 62
    7
 10
73.067865
 20
20.994031
 11
72.351564
 21
20.994031
  0
LINE
  8
1-1
  6
CONTINUOUS
 62
    7
 10
73.067865
 20
20.994031
 11
72.362142
 21
21.056633
  0
LINE
  8
1-1
  6
CONTINUOUS
 62
    7
 10
72.351564
 20
21.056633
 11
71.645841
 21
21.056633
  0
LINE
  8
1-1
  6
CONTINUOUS
 62
    7
 10
73.005275
 20
19.996007
 11
72.288974
 21
19.996007
  0
LINE
  8
1-1
  6
CONTINUOUS
 62
    7
 10
72.351564
 20
20.994031
 11
72.288974
 21
19.996007
  0
LINE
  8
1-1
  6
CONTINUOUS
 62
    7
 10
68.938255
 20
21.290501
 11
68.93635
 21
21.26019
  0
LINE
  8
1-1
  6
CONTINUOUS
 62
    7
 10
69.581376
 20
20.229875
 11
69.322059
 21
20.252875
  0
LINE
  8
1-1
  6
CONTINUOUS
 62
    7
 10
71.739695
 20
21.026322
 11
71.60536
 21
21.026322
  0
LINE
  8
1-1
  6
CONTINUOUS
 62
    7
 10
73.054887
 20
21.026322
 11
72.920552
 21
21.026322
  0
LINE
  8
1-1
  6
CONTINUOUS
 62
    7
 10
72.349473
 20
19.185667
 11
72.475902
 21
19.996007
  0
LINE
  8
1-1
  6
CONTINUOUS
 62
    7
 10
71.645841
 20
21.056633
 11
71.643936
 21
21.026322
  0
LINE
  8
1-1
  6
CONTINUOUS
 62
    7
 10
72.288974
 20
19.996007
 11
72.203595
 21
20.003579
  0
LINE
  8
1-1
  6
CONTINUOUS
 62
    7
 10
69.863693
 20
16.802054
 11
69.633388
 21
17.532719
  0
LINE
  8
1-1
  6
CONTINUOUS
 62
    7
 10
69.863693
 20
16.802054
 11
69.278968
 21
16.326697
  0
LINE
  8
1-1
  6
CONTINUOUS
 62
    7
 10
69.633388
 20
17.532719
 11
69.499028
 21
17.532719
  0
LINE
  8
1-1
  6
CONTINUOUS
 62
    7
 10
69.863693
 20
16.802054
 11
69.729345
 21
16.802054
  0
LINE
  8
1-1
  6
CONTINUOUS
 62
    7
 10
69.102803
 20
16.260186
 11
68.968455
 21
16.260186
  0
LINE
  8
1-1
  6
CONTINUOUS
 62
    7
 10
69.499028
 20
17.532719
 11
69.322059
 21
17.450569
  0
LINE
  8
1-1
  6
CONTINUOUS
 62
    7
 10
72.003305
 20
15.920253
 11
72.137652
 21
15.920253
  0
LINE
  8
1-1
  6
CONTINUOUS
 62
    7
 10
71.034281
 20
19.185667
 11
69.322059
 21
17.664753
  0
LINE
  8
1-1
  6
CONTINUOUS
 62
    7
 10
69.892556
 20
20.229875
 11
69.892556
 21
18.17151
  0
LINE
  8
1-1
  6
CONTINUOUS
 62
    7
 10
72.917248
 20
20.225706
 11
72.694045
 21
20.245501
  0
LINE
  8
1-1
  6
CONTINUOUS
 62
    7
 10
71.220022
 20
20.376248
 11
70.057166
 21
20.479381
  0
LINE
  8
1-1
  6
CONTINUOUS
 62
    7
 10
72.917248
 20
20.726697
 11
72.705118
 21
20.745515
  0
LINE
  8
1-1
  6
CONTINUOUS
 62
    7
 10
71.345944
 20
20.866068
 11
70.079299
 21
20.978418
  0
LINE
  8
1-1
  6
CONTINUOUS
 62
    7
 10
73.005275
 20
19.996007
 11
73.022819
 21
20.275664
  0
LINE
  8
1-1
  6
CONTINUOUS
 62
    7
 10
73.046127
 20
20.647343
 11
73.067865
 21
20.994031
  0
LINE
  8
1-1
  6
CONTINUOUS
 62
    7
 10
70.786507
 20
20.4147
 11
70.786507
 21
18.965569
  0
LINE
  8
1-1
  6
CONTINUOUS
 62
    7
 10
70.850149
 20
19.022109
 11
70.850149
 21
20.409059
  0
LINE
  8
1-1
  6
CONTINUOUS
 62
    7
 10
70.429909
 20
20.229875
 11
70.443407
 21
20.445135
  0
LINE
  8
1-1
  6
CONTINUOUS
 62
    7
 10
70.474659
 20
20.943343
 11
70.492499
 21
21.227911
  0
LINE
  8
1-1
  6
CONTINUOUS
 62
    7
 10
70.224373
 20
21.26019
 11
70.496545
 21
21.26019
  0
LINE
  8
1-1
  6
CONTINUOUS
 62
    7
 10
69.892556
 20
20.229875
 11
69.892556
 21
18.17151
  0
LINE
  8
1-1
  6
CONTINUOUS
 62
    7
 10
71.60536
 20
20.776309
 11
71.502833
 21
20.776309
  0
LINE
  8
1-1
  6
CONTINUOUS
 62
    7
 10
71.60536
 20
20.276307
 11
71.502833
 21
20.276307
  0
LINE
  8
1-1
  6
CONTINUOUS
 62
    7
 10
72.419721
 20
18.851524
 11
88.073717
 21
14.568007
  0
LINE
  8
1-1
  6
CONTINUOUS
 62
    7
 10
88.244228
 20
13.662167
 11
88.244228
 21
14.2775
  0
LINE
  8
1-1
  6
CONTINUOUS
 62
    7
 10
87.360645
 20
14.20787
 11
68.940643
 21
16.261745
  0
LINE
  8
1-1
  6
CONTINUOUS
 62
    7
 10
89.481674
 20
13.662167
 11
89.481674
 21
14.2775
  0
LINE
  8
1-1
  6
CONTINUOUS
 62
    7
 10
89.34286
 20
14.559581
 11
73.600566
 21
18.851524
  0
LINE
  8
1-1
  6
CONTINUOUS
 62
    7
 10
89.128083
 20
13.162165
 11
89.043174
 21
13.162165
  0
LINE
  8
1-1
  6
CONTINUOUS
 62
    7
 10
88.51317
 20
14.20787
 11
88.608509
 21
13.86216
  0
LINE
  8
1-1
  6
CONTINUOUS
 62
    7
 10
88.598079
 20
14.20787
 11
88.693405
 21
13.86216
  0
LINE
  8
1-1
  6
CONTINUOUS
 62
    7
 10
89.806897
 20
12.462158
 11
89.476379
 21
13.660694
  0
LINE
  8
1-1
  6
CONTINUOUS
 62
    7
 10
89.099776
 20
13.462161
 11
88.299617
 21
13.462161
  0
LINE
  8
1-1
  6
CONTINUOUS
 62
    7
 10
89.099776
 20
13.86216
 11
88.329149
 21
13.86216
  0
LINE
  8
1-1
  6
CONTINUOUS
 62
    7
 10
87.360645
 20
14.20787
 11
87.459967
 21
13.847672
  0
LINE
  8
1-1
  6
CONTINUOUS
 62
    7
 10
88.244228
 20
14.20787
 11
89.480214
 21
14.20787
  0
LINE
  8
1-1
  6
CONTINUOUS
 62
    7
 10
89.396778
 20
13.662167
 11
89.396778
 21
14.20787
  0
LINE
  8
1-1
  6
CONTINUOUS
 62
    7
 10
88.329149
 20
13.662167
 11
88.329149
 21
14.20787
  0
LINE
  8
1-1
  6
CONTINUOUS
 62
    7
 10
70.224373
 20
21.26019
 11
70.224373
 21
23.270181
  0
LINE
  8
1-1
  6
CONTINUOUS
 62
    7
 10
26.506282
 20
40.553821
 11
53.023433
 21
26.057528
  0
LINE
  8
1-1
  6
CONTINUOUS
 62
    7
 10
25.930669
 20
39.500897
 11
26.506282
 21
40.553821
  0
LINE
  8
1-1
  6
CONTINUOUS
 62
    7
 10
25.930669
 20
39.500897
 11
52.868882
 21
24.774392
  0
LINE
  8
1-1
  6
CONTINUOUS
 62
    7
 10
28.534951
 20
41.760013
 11
36.431962
 21
37.44293
  0
LINE
  8
1-1
  6
CONTINUOUS
 62
    7
 10
25.656892
 20
36.495347
 11
33.553891
 21
32.178252
  0
LINE
  8
1-1
  6
CONTINUOUS
 62
    7
 10
36.003533
 20
35.408848
 11
36.622268
 21
36.163342
  0
LINE
  8
1-1
  6
CONTINUOUS
 62
    7
 10
36.622268
 20
36.163342
 11
36.979448
 21
35.968075
  0
LINE
  8
1-1
  6
CONTINUOUS
 62
    7
 10
36.312832
 20
35.155198
 11
36.979448
 21
35.968075
  0
LINE
  8
1-1
  6
CENTER1
 62
    2
 10
73.275108
 20
33.28219
 11
69.559243
 21
33.28219
  0
LINE
  8
1-1
  6
CONTINUOUS
 62
    7
 10
69.974348
 20
33.282165
 11
69.974348
 21
24.178235
  0
LINE
  8
1-1
  6
CENTER1
 62
    2
 10
53.37293
 20
25.482156
 11
52.393699
 21
25.482156
  0
LINE
  8
1-1
  6
CENTER1
 62
    2
 10
53.524363
 20
27.548959
 11
53.524363
 21
26.48816
  0
LINE
  8
1-1
  6
CENTER1
 62
    2
 10
54.188924
 20
26.982161
 11
52.801715
 21
26.982161
  0
LINE
  8
1-1
  6
CENTER1
 62
    2
 10
52.824356
 20
26.161762
 11
52.824356
 21
24.937776
  0
LINE
  8
1-1
  6
CONTINUOUS
 62
    7
 10
72.77434
 20
24.182169
 11
59.024356
 21
24.182169
  0
LINE
  8
1-1
  6
CONTINUOUS
 62
    7
 10
59.024356
 20
26.196874
 11
59.024356
 21
24.182169
  0
LINE
  8
1-1
  6
CONTINUOUS
 62
    7
 10
53.574358
 20
26.182164
 11
53.574358
 21
24.73234
  0
LINE
  8
1-1
  6
CONTINUOUS
 62
    7
 10
53.574358
 20
24.73234
 11
59.023911
 21
24.182504
  0
LINE
  8
1-1
  6
CONTINUOUS
 62
    7
 10
61.874343
 20
26.129471
 11
61.874343
 21
24.178235
  0
LINE
  8
1-1
  6
CENTER1
 62
    2
 10
70.524332
 20
34.500558
 11
70.524332
 21
32.414047
  0
LINE
  8
1-1
  6
CONTINUOUS
 62
    7
 10
54.419192
 20
26.182312
 11
54.087672
 21
27.178097
  0
LINE
  8
1-1
  6
CONTINUOUS
 62
    7
 10
53.580074
 20
26.182312
 11
52.707849
 21
25.976504
  0
LINE
  8
1-1
  6
CONTINUOUS
 62
    7
 10
53.572576
 20
24.732377
 11
52.673962
 21
25.012602
  0
LINE
  8
1-1
  6
CONTINUOUS
 62
    7
 10
52.959866
 20
27.207752
 11
52.357437
 21
25.672561
  0
LINE
  8
1-1
  6
CONTINUOUS
 62
    7
 10
63.724352
 20
27.182179
 11
63.724352
 21
26.228101
  0
LINE
  8
1-1
  6
CONTINUOUS
 62
    7
 10
68.124339
 20
27.182179
 11
68.124339
 21
26.228101
  0
LINE
  8
1-1
  6
CONTINUOUS
 62
    7
 10
63.634346
 20
27.062183
 11
63.224363
 21
27.062183
  0
LINE
  8
1-1
  6
CONTINUOUS
 62
    7
 10
68.624366
 20
27.062183
 11
68.214345
 21
27.062183
  0
LINE
  8
1-1
  6
CONTINUOUS
 62
    7
 10
63.224363
 20
27.182179
 11
63.224363
 21
27.06107
  0
LINE
  8
1-1
  6
CONTINUOUS
 62
    7
 10
63.634346
 20
27.062183
 11
63.634346
 21
26.30216
  0
LINE
  8
1-1
  6
CONTINUOUS
 62
    7
 10
63.634346
 20
26.30216
 11
63.224363
 21
26.30216
  0
LINE
  8
1-1
  6
CONTINUOUS
 62
    7
 10
63.224363
 20
26.30216
 11
63.224363
 21
26.1799
  0
LINE
  8
1-1
  6
CONTINUOUS
 62
    7
 10
68.624366
 20
27.182179
 11
68.624366
 21
27.073133
  0
LINE
  8
1-1
  6
CONTINUOUS
 62
    7
 10
68.624366
 20
26.30216
 11
68.214345
 21
26.30216
  0
LINE
  8
1-1
  6
CONTINUOUS
 62
    7
 10
68.624366
 20
26.30216
 11
68.624366
 21
26.228101
  0
LINE
  8
1-1
  6
CONTINUOUS
 62
    7
 10
66.524344
 20
32.632177
 11
65.324347
 21
32.632177
  0
LINE
  8
1-1
  6
CONTINUOUS
 62
    7
 10
66.524344
 20
32.582182
 11
65.324347
 21
32.582182
  0
LINE
  8
1-1
  6
CONTINUOUS
 62
    7
 10
66.524344
 20
32.632177
 11
66.524344
 21
32.391814
  0
LINE
  8
1-1
  6
CONTINUOUS
 62
    7
 10
65.324347
 20
32.632177
 11
65.324347
 21
32.374011
  0
LINE
  8
1-1
  6
CONTINUOUS
 62
    7
 10
66.17434
 20
32.682173
 11
65.674351
 21
32.682173
  0
LINE
  8
1-1
  6
CONTINUOUS
 62
    7
 10
65.674351
 20
32.682173
 11
65.674351
 21
32.633514
  0
LINE
  8
1-1
  6
CONTINUOUS
 62
    7
 10
66.17434
 20
32.682173
 11
66.17434
 21
32.633514
  0
LINE
  8
1-1
  6
CONTINUOUS
 62
    7
 10
65.774341
 20
32.992165
 11
65.774341
 21
32.691947
  0
LINE
  8
1-1
  6
CONTINUOUS
 62
    7
 10
66.07435
 20
32.992165
 11
65.774341
 21
32.992165
  0
LINE
  8
1-1
  6
CONTINUOUS
 62
    7
 10
66.07435
 20
32.992165
 11
66.07435
 21
32.687183
  0
LINE
  8
1-1
  6
CENTER1
 62
    2
 10
69.189234
 20
30.332175
 11
61.994302
 21
30.332175
  0
LINE
  8
1-1
  6
CONTINUOUS
 62
    7
 10
63.862349
 20
28.89716
 11
63.862349
 21
28.397158
  0
LINE
  8
1-1
  6
CONTINUOUS
 62
    7
 10
67.647956
 20
28.861529
 11
67.647956
 21
28.361539
  0
LINE
  8
1-1
  6
CONTINUOUS
 62
    7
 10
64.247947
 20
28.861529
 11
64.247947
 21
28.361539
  0
LINE
  8
1-1
  6
CONTINUOUS
 62
    7
 10
63.599345
 20
27.382185
 11
63.599345
 21
27.187821
  0
LINE
  8
1-1
  6
CONTINUOUS
 62
    7
 10
68.214345
 20
27.062183
 11
68.214345
 21
26.30216
  0
LINE
  8
1-1
  6
CONTINUOUS
 62
    7
 10
68.249346
 20
27.382185
 11
68.249346
 21
27.187821
  0
LINE
  8
1-1
  6
CONTINUOUS
 62
    7
 10
64.259045
 20
27.182179
 11
63.224363
 21
27.182179
  0
LINE
  8
1-1
  6
CONTINUOUS
 62
    7
 10
64.121084
 20
27.382185
 11
63.599345
 21
27.382185
  0
LINE
  8
1-1
  6
CONTINUOUS
 62
    7
 10
68.174334
 20
27.582178
 11
68.174334
 21
27.394743
  0
LINE
  8
1-1
  6
CONTINUOUS
 62
    7
 10
63.674357
 20
27.582178
 11
63.674357
 21
27.394743
  0
LINE
  8
1-1
  6
CONTINUOUS
 62
    7
 10
64.010999
 20
27.582178
 11
63.674357
 21
27.582178
  0
LINE
  8
1-1
  6
CONTINUOUS
 62
    7
 10
68.174334
 20
27.582178
 11
67.79371
 21
27.582178
  0
LINE
  8
1-1
  6
CONTINUOUS
 62
    7
 10
68.249346
 20
27.382185
 11
67.705151
 21
27.382185
  0
LINE
  8
1-1
  6
CONTINUOUS
 62
    7
 10
68.624366
 20
27.182179
 11
67.578623
 21
27.182179
  0
LINE
  8
1-1
  6
CONTINUOUS
 62
    7
 10
63.66942
 20
27.594068
 11
63.434773
 21
30.099173
  0
LINE
  8
1-1
  6
CONTINUOUS
 62
    7
 10
68.173221
 20
27.594068
 11
68.412545
 21
30.093519
  0
LINE
  8
1-1
  6
CONTINUOUS
 62
    7
 10
67.962328
 20
28.89716
 11
67.962328
 21
28.397158
  0
LINE
  8
1-1
  6
CONTINUOUS
 62
    7
 10
58.424339
 20
27.182179
 11
58.424339
 21
26.219354
  0
LINE
  8
1-1
  6
CONTINUOUS
 62
    7
 10
55.424367
 20
27.182179
 11
55.424367
 21
26.219354
  0
LINE
  8
1-1
  6
CONTINUOUS
 62
    7
 10
55.33436
 20
27.062183
 11
55.33436
 21
26.30216
  0
LINE
  8
1-1
  6
CONTINUOUS
 62
    7
 10
58.514346
 20
27.062183
 11
58.514346
 21
26.30216
  0
LINE
  8
1-1
  6
CONTINUOUS
 62
    7
 10
55.33436
 20
27.062183
 11
54.92434
 21
27.062183
  0
LINE
  8
1-1
  6
CONTINUOUS
 62
    7
 10
55.33436
 20
26.30216
 11
54.92434
 21
26.30216
  0
LINE
  8
1-1
  6
CONTINUOUS
 62
    7
 10
54.92434
 20
26.30216
 11
54.92434
 21
26.219354
  0
LINE
  8
1-1
  6
CONTINUOUS
 62
    7
 10
58.924329
 20
26.30216
 11
58.514346
 21
26.30216
  0
LINE
  8
1-1
  6
CONTINUOUS
 62
    7
 10
58.924329
 20
26.30216
 11
58.924329
 21
26.219354
  0
LINE
  8
1-1
  6
CENTER1
 62
    2
 10
60.005851
 20
29.482182
 11
53.960141
 21
29.482182
  0
LINE
  8
1-1
  6
CENTER1
 62
    2
 10
56.924334
 20
31.818595
 11
56.924334
 21
27.31112
  0
LINE
  8
1-1
  6
CONTINUOUS
 62
    7
 10
58.914753
 20
27.182179
 11
58.444568
 21
27.182179
  0
LINE
  8
1-1
  6
CONTINUOUS
 62
    7
 10
58.924329
 20
27.062183
 11
58.514346
 21
27.062183
  0
LINE
  8
1-1
  6
CONTINUOUS
 62
    7
 10
58.924329
 20
27.062183
 11
58.924329
 21
27.482175
  0
LINE
  8
1-1
  6
CONTINUOUS
 62
    7
 10
58.924329
 20
27.482175
 11
54.92434
 21
27.482175
  0
LINE
  8
1-1
  6
CONTINUOUS
 62
    7
 10
54.92434
 20
27.482175
 11
54.92434
 21
27.062183
  0
LINE
  8
1-1
  6
CONTINUOUS
 62
    7
 10
58.592809
 20
27.182179
 11
54.92434
 21
27.182179
  0
LINE
  8
1-1
  6
CONTINUOUS
 62
    7
 10
54.908121
 20
27.472105
 11
54.974707
 21
29.544908
  0
LINE
  8
1-1
  6
CONTINUOUS
 62
    7
 10
58.914753
 20
27.489994
 11
58.873294
 21
29.522119
  0
LINE
  8
1-1
  6
CONTINUOUS
 62
    7
 10
55.337404
 20
29.475427
 11
54.908121
 21
27.489994
  0
LINE
  8
1-1
  6
CONTINUOUS
 62
    7
 10
58.539139
 20
29.493317
 11
58.914753
 21
27.454215
  0
LINE
  8
1-1
  6
CONTINUOUS
 62
    7
 10
61.449365
 20
29.382167
 11
59.799338
 21
29.382167
  0
LINE
  8
1-1
  6
CONTINUOUS
 62
    7
 10
61.449365
 20
29.782178
 11
59.799338
 21
29.782178
  0
LINE
  8
1-1
  6
CONTINUOUS
 62
    7
 10
61.449365
 20
31.582167
 11
59.799338
 21
31.582167
  0
LINE
  8
1-1
  6
CONTINUOUS
 62
    7
 10
61.449365
 20
31.682169
 11
59.799338
 21
31.682169
  0
LINE
  8
1-1
  6
CONTINUOUS
 62
    7
 10
60.176547
 20
32.082181
 11
60.078338
 21
31.787554
  0
LINE
  8
1-1
  6
CONTINUOUS
 62
    7
 10
61.06889
 20
32.082181
 11
60.176547
 21
32.082181
  0
LINE
  8
1-1
  6
CONTINUOUS
 62
    7
 10
61.06889
 20
32.082181
 11
61.173445
 21
31.787554
  0
LINE
  8
1-1
  6
CONTINUOUS
 62
    7
 10
61.178122
 20
31.782185
 11
60.078338
 21
31.782185
  0
LINE
  8
1-1
  6
CONTINUOUS
 62
    7
 10
60.068985
 20
31.778176
 11
59.799338
 21
31.683567
  0
LINE
  8
1-1
  6
CONTINUOUS
 62
    7
 10
61.178122
 20
31.782853
 11
61.449365
 21
31.676305
  0
LINE
  8
1-1
  6
CONTINUOUS
 62
    7
 10
61.449365
 20
29.482182
 11
59.799338
 21
29.482182
  0
LINE
  8
1-1
  6
CONTINUOUS
 62
    7
 10
60.124362
 20
29.7945
 11
60.124362
 21
29.484854
  0
LINE
  8
1-1
  6
CONTINUOUS
 62
    7
 10
61.124341
 20
29.807145
 11
61.124341
 21
29.484854
  0
LINE
  8
1-1
  6
CONTINUOUS
 62
    7
 10
59.799338
 20
31.683567
 11
59.799338
 21
29.788785
  0
LINE
  8
1-1
  6
CONTINUOUS
 62
    7
 10
61.449365
 20
31.676305
 11
61.449365
 21
29.788785
  0
LINE
  8
1-1
  6
CONTINUOUS
 62
    7
 10
62.074361
 20
26.402175
 11
59.174342
 21
26.402175
  0
LINE
  8
1-1
  6
CONTINUOUS
 62
    7
 10
62.074361
 20
26.402175
 11
62.074361
 21
26.192494
  0
LINE
  8
1-1
  6
CONTINUOUS
 62
    7
 10
69.934337
 20
26.182164
 11
53.574358
 21
26.182164
  0
LINE
  8
1-1
  6
CONTINUOUS
 62
    7
 10
59.174342
 20
26.402175
 11
59.174342
 21
26.192494
  0
LINE
  8
1-1
  6
CONTINUOUS
 62
    7
 10
61.749337
 20
27.632173
 11
59.499366
 21
27.632173
  0
LINE
  8
1-1
  6
CONTINUOUS
 62
    7
 10
59.499366
 20
27.632173
 11
59.499366
 21
26.982161
  0
LINE
  8
1-1
  6
CONTINUOUS
 62
    7
 10
61.749337
 20
27.632173
 11
61.749337
 21
26.982161
  0
LINE
  8
1-1
  6
CONTINUOUS
 62
    7
 10
61.749337
 20
26.982161
 11
59.499366
 21
26.982161
  0
LINE
  8
1-1
  6
CONTINUOUS
 62
    7
 10
59.157528
 20
26.420448
 11
59.79069
 21
26.648377
  0
LINE
  8
1-1
  6
CONTINUOUS
 62
    7
 10
62.095332
 20
26.420448
 11
61.462208
 21
26.648377
  0
LINE
  8
1-1
  6
CONTINUOUS
 62
    7
 10
61.462208
 20
26.652163
 11
59.765339
 21
26.652163
  0
LINE
  8
1-1
  6
CONTINUOUS
 62
    7
 10
59.774359
 20
26.977596
 11
59.774359
 21
26.648377
  0
LINE
  8
1-1
  6
CONTINUOUS
 62
    7
 10
61.474344
 20
26.977596
 11
61.474344
 21
26.673691
  0
LINE
  8
1-1
  6
CONTINUOUS
 62
    7
 10
61.474344
 20
27.832179
 11
59.774359
 21
27.832179
  0
LINE
  8
1-1
  6
CONTINUOUS
 62
    7
 10
61.474344
 20
27.832179
 11
61.474344
 21
27.661396
  0
LINE
  8
1-1
  6
CONTINUOUS
 62
    7
 10
59.774359
 20
27.832179
 11
59.774359
 21
27.661396
  0
LINE
  8
1-1
  6
CENTER1
 62
    2
 10
60.624352
 20
31.309401
 11
60.624352
 21
25.558826
  0
LINE
  8
1-1
  6
CONTINUOUS
 62
    7
 10
59.874349
 20
28.132163
 11
59.874349
 21
27.84032
  0
LINE
  8
1-1
  6
CONTINUOUS
 62
    7
 10
61.374354
 20
28.132163
 11
61.374354
 21
27.810664
  0
LINE
  8
1-1
  6
CONTINUOUS
 62
    7
 10
61.399333
 20
28.132163
 11
59.84937
 21
28.132163
  0
LINE
  8
1-1
  6
CONTINUOUS
 62
    7
 10
61.36849
 20
27.982177
 11
59.862509
 21
27.982177
  0
LINE
  8
1-1
  6
CONTINUOUS
 62
    7
 10
59.84937
 20
28.68216
 11
59.84937
 21
28.132163
  0
LINE
  8
1-1
  6
CONTINUOUS
 62
    7
 10
61.399333
 20
28.68216
 11
59.84937
 21
28.68216
  0
LINE
  8
1-1
  6
CONTINUOUS
 62
    7
 10
61.399333
 20
28.68216
 11
61.399333
 21
28.132163
  0
LINE
  8
1-1
  6
CONTINUOUS
 62
    7
 10
59.97434
 20
28.671099
 11
59.97434
 21
29.273516
  0
LINE
  8
1-1
  6
CONTINUOUS
 62
    7
 10
61.274364
 20
28.671099
 11
61.274364
 21
29.273516
  0
LINE
  8
1-1
  6
CONTINUOUS
 62
    7
 10
59.799338
 20
29.459541
 11
59.799338
 21
29.282164
  0
LINE
  8
1-1
  6
CONTINUOUS
 62
    7
 10
61.449365
 20
29.459541
 11
61.449365
 21
29.282164
  0
LINE
  8
1-1
  6
CONTINUOUS
 62
    7
 10
61.449365
 20
29.282164
 11
59.799338
 21
29.282164
  0
LINE
  8
1-1
  6
CONTINUOUS
 62
    7
 10
70.174366
 20
24.062174
 11
61.674362
 21
24.062174
  0
LINE
  8
1-1
  6
CONTINUOUS
 62
    7
 10
70.804335
 20
23.942178
 11
61.044356
 21
23.942178
  0
LINE
  8
1-1
  6
CONTINUOUS
 62
    7
 10
61.674362
 20
24.161347
 11
61.674362
 21
23.94584
  0
LINE
  8
1-1
  6
CONTINUOUS
 62
    7
 10
70.174366
 20
24.193156
 11
70.174366
 21
23.94584
  0
LINE
  8
1-1
  6
CONTINUOUS
 62
    7
 10
52.878471
 20
24.769752
 11
52.95081
 21
24.902034
  0
LINE
  8
1-1
  6
CONTINUOUS
 62
    7
 10
60.726068
 20
70.519334
 11
61.366133
 21
71.299858
  0
LINE
  8
1-1
  6
CONTINUOUS
 62
    7
 10
60.726068
 20
70.519334
 11
61.019098
 21
70.245863
  0
LINE
  8
1-1
  6
CONTINUOUS
 62
    7
 10
61.019098
 20
70.245863
 11
61.44634
 21
70.766873
  0
LINE
  8
1-1
  6
CONTINUOUS
 62
    7
 10
61.366133
 20
71.299858
 11
61.56693
 21
71.112472
  0
LINE
  8
1-1
  6
CENTER1
 62
    2
 10
66.545908
 20
33.286544
 11
70.801885
 21
33.286544
  0
LINE
  8
1-1
  6
CONTINUOUS
 62
    7
 10
245.6243
 20
68.400593
 11
245.6243
 21
68.126405
  0
LINE
  8
1-1
  6
CONTINUOUS
 62
    7
 10
245.6243
 20
68.126405
 11
246.22434
 21
68.126405
  0
LINE
  8
1-1
  6
CONTINUOUS
 62
    7
 10
246.22434
 20
68.126405
 11
246.22627
 21
68.102775
  0
LINE
  8
1-1
  6
CONTINUOUS
 62
    7
 10
246.22627
 20
68.102775
 11
246.23003
 21
68.062269
  0
LINE
  8
1-1
  6
CONTINUOUS
 62
    7
 10
246.23003
 20
68.062269
 11
246.23543
 21
68.02253
  0
LINE
  8
1-1
  6
CONTINUOUS
 62
    7
 10
246.23543
 20
68.02253
 11
246.24344
 21
67.983954
  0
LINE
  8
1-1
  6
CONTINUOUS
 62
    7
 10
246.24344
 20
67.983954
 11
246.24963
 21
67.96234
  0
LINE
  8
1-1
  6
CONTINUOUS
 62
    7
 10
246.24963
 20
67.96234
 11
246.27056
 21
67.91185
  0
LINE
  8
1-1
  6
CONTINUOUS
 62
    7
 10
246.27056
 20
67.91185
 11
246.32312
 21
67.83236
  0
LINE
  8
1-1
  6
CONTINUOUS
 62
    7
 10
246.32312
 20
67.83236
 11
246.39126
 21
67.760071
  0
LINE
  8
1-1
  6
CONTINUOUS
 62
    7
 10
246.39126
 20
67.760071
 11
246.46901
 21
67.692223
  0
LINE
  8
1-1
  6
CONTINUOUS
 62
    7
 10
246.46901
 20
67.692223
 11
246.51607
 21
67.65382
  0
LINE
  8
1-1
  6
CONTINUOUS
 62
    7
 10
245.6243
 20
68.126405
 11
245.62598
 21
68.099311
  0
LINE
  8
1-1
  6
CONTINUOUS
 62
    7
 10
245.62598
 20
68.099311
 11
245.6293
 21
68.052693
  0
LINE
  8
1-1
  6
CONTINUOUS
 62
    7
 10
245.6293
 20
68.052693
 11
245.634
 21
68.006422
  0
LINE
  8
1-1
  6
CONTINUOUS
 62
    7
 10
245.634
 20
68.006422
 11
245.64103
 21
67.960559
  0
LINE
  8
1-1
  6
CONTINUOUS
 62
    7
 10
245.64103
 20
67.960559
 11
245.64657
 21
67.934268
  0
LINE
  8
1-1
  6
CONTINUOUS
 62
    7
 10
245.64657
 20
67.934268
 11
245.65221
 21
67.912172
  0
LINE
  8
1-1
  6
CONTINUOUS
 62
    7
 10
245.65221
 20
67.912172
 11
245.66379
 21
67.874512
  0
LINE
  8
1-1
  6
CONTINUOUS
 62
    7
 10
245.66379
 20
67.874512
 11
245.67755
 21
67.83742
  0
LINE
  8
1-1
  6
CONTINUOUS
 62
    7
 10
245.67755
 20
67.83742
 11
245.69304
 21
67.800948
  0
LINE
  8
1-1
  6
CONTINUOUS
 62
    7
 10
245.69304
 20
67.800948
 11
245.70264
 21
67.780014
  0
LINE
  8
1-1
  6
CONTINUOUS
 62
    7
 10
245.70264
 20
67.780014
 11
245.71358
 21
67.757448
  0
LINE
  8
1-1
  6
CONTINUOUS
 62
    7
 10
245.71358
 20
67.757448
 11
245.73367
 21
67.719156
  0
LINE
  8
1-1
  6
CONTINUOUS
 62
    7
 10
245.73367
 20
67.719156
 11
245.75539
 21
67.681904
  0
LINE
  8
1-1
  6
CONTINUOUS
 62
    7
 10
245.75539
 20
67.681904
 11
245.7791
 21
67.645964
  0
LINE
  8
1-1
  6
CONTINUOUS
 62
    7
 10
245.7791
 20
67.645964
 11
245.7938
 21
67.625773
  0
LINE
  8
1-1
  6
CONTINUOUS
 62
    7
 10
245.7938
 20
67.625773
 11
245.80533
 21
67.610988
  0
LINE
  8
1-1
  6
CONTINUOUS
 62
    7
 10
245.80533
 20
67.610988
 11
245.82606
 21
67.586294
  0
LINE
  8
1-1
  6
CONTINUOUS
 62
    7
 10
245.82606
 20
67.586294
 11
245.84804
 21
67.562663
  0
LINE
  8
1-1
  6
CONTINUOUS
 62
    7
 10
245.84804
 20
67.562663
 11
245.8711
 21
67.540109
  0
LINE
  8
1-1
  6
CONTINUOUS
 62
    7
 10
245.8711
 20
67.540109
 11
245.88495
 21
67.527551
  0
LINE
  8
1-1
  6
CONTINUOUS
 62
    7
 10
245.88495
 20
67.527551
 11
245.89446
 21
67.519386
  0
LINE
  8
1-1
  6
CONTINUOUS
 62
    7
 10
245.89446
 20
67.519386
 11
245.91108
 21
67.505665
  0
LINE
  8
1-1
  6
CONTINUOUS
 62
    7
 10
245.91108
 20
67.505665
 11
245.92806
 21
67.492291
  0
LINE
  8
1-1
  6
CONTINUOUS
 62
    7
 10
245.92806
 20
67.492291
 11
245.94518
 21
67.479078
  0
LINE
  8
1-1
  6
CONTINUOUS
 62
    7
 10
245.94518
 20
67.479078
 11
245.95513
 21
67.471506
  0
LINE
  8
1-1
  6
CONTINUOUS
 62
    7
 10
245.07434
 20
67.045118
 11
245.07568
 21
67.071705
  0
LINE
  8
1-1
  6
CONTINUOUS
 62
    7
 10
245.07568
 20
67.071705
 11
245.0787
 21
67.117271
  0
LINE
  8
1-1
  6
CONTINUOUS
 62
    7
 10
245.0787
 20
67.117271
 11
245.08384
 21
67.162627
  0
LINE
  8
1-1
  6
CONTINUOUS
 62
    7
 10
245.08384
 20
67.162627
 11
245.0925
 21
67.207389
  0
LINE
  8
1-1
  6
CONTINUOUS
 62
    7
 10
245.0925
 20
67.207389
 11
245.09963
 21
67.233073
  0
LINE
  8
1-1
  6
CONTINUOUS
 62
    7
 10
245.09963
 20
67.233073
 11
245.10804
 21
67.257063
  0
LINE
  8
1-1
  6
CONTINUOUS
 62
    7
 10
245.10804
 20
67.257063
 11
245.12615
 21
67.29721
  0
LINE
  8
1-1
  6
CONTINUOUS
 62
    7
 10
245.12615
 20
67.29721
 11
245.14842
 21
67.335006
  0
LINE
  8
1-1
  6
CONTINUOUS
 62
    7
 10
245.14842
 20
67.335006
 11
245.17431
 21
67.369363
  0
LINE
  8
1-1
  6
CONTINUOUS
 62
    7
 10
245.17431
 20
67.369363
 11
245.19079
 21
67.38734
  0
LINE
  8
1-1
  6
CONTINUOUS
 62
    7
 10
245.19079
 20
67.38734
 11
245.2036
 21
67.399526
  0
LINE
  8
1-1
  6
CONTINUOUS
 62
    7
 10
245.2036
 20
67.399526
 11
245.22726
 21
67.418579
  0
LINE
  8
1-1
  6
CONTINUOUS
 62
    7
 10
245.22726
 20
67.418579
 11
245.25368
 21
67.435232
  0
LINE
  8
1-1
  6
CONTINUOUS
 62
    7
 10
245.25368
 20
67.435232
 11
245.28367
 21
67.449831
  0
LINE
  8
1-1
  6
CONTINUOUS
 62
    7
 10
245.28367
 20
67.449831
 11
245.30297
 21
67.457476
  0
LINE
  8
1-1
  6
CONTINUOUS
 62
    7
 10
245.30297
 20
67.457476
 11
245.31277
 21
67.460891
  0
LINE
  8
1-1
  6
CONTINUOUS
 62
    7
 10
245.31277
 20
67.460891
 11
245.32975
 21
67.465729
  0
LINE
  8
1-1
  6
CONTINUOUS
 62
    7
 10
245.32975
 20
67.465729
 11
245.34578
 21
67.46824
  0
LINE
  8
1-1
  6
CONTINUOUS
 62
    7
 10
245.34578
 20
67.46824
 11
245.35964
 21
67.467213
  0
LINE
  8
1-1
  6
CONTINUOUS
 62
    7
 10
245.35964
 20
67.467213
 11
245.36607
 21
67.464454
  0
LINE
  8
1-1
  6
CONTINUOUS
 62
    7
 10
245.36607
 20
67.464454
 11
245.37265
 21
67.458021
  0
LINE
  8
1-1
  6
CONTINUOUS
 62
    7
 10
245.37265
 20
67.458021
 11
245.37904
 21
67.440774
  0
LINE
  8
1-1
  6
CONTINUOUS
 62
    7
 10
245.37904
 20
67.440774
 11
245.38102
 21
67.418455
  0
LINE
  8
1-1
  6
CONTINUOUS
 62
    7
 10
245.38102
 20
67.418455
 11
245.38062
 21
67.394157
  0
LINE
  8
1-1
  6
CONTINUOUS
 62
    7
 10
245.38062
 20
67.394157
 11
245.38013
 21
67.380349
  0
LINE
  8
1-1
  6
CONTINUOUS
 62
    7
 10
245.38013
 20
67.380349
 11
245.37988
 21
67.370625
  0
LINE
  8
1-1
  6
CONTINUOUS
 62
    7
 10
245.37988
 20
67.370625
 11
245.37983
 21
67.354913
  0
LINE
  8
1-1
  6
CONTINUOUS
 62
    7
 10
245.37983
 20
67.354913
 11
245.37993
 21
67.340041
  0
LINE
  8
1-1
  6
CONTINUOUS
 62
    7
 10
245.37993
 20
67.340041
 11
245.38008
 21
67.325591
  0
LINE
  8
1-1
  6
CONTINUOUS
 62
    7
 10
245.38008
 20
67.325591
 11
245.38013
 21
67.317203
  0
LINE
  8
1-1
  6
CONTINUOUS
 62
    7
 10
245.38013
 20
67.317203
 11
245.37998
 21
67.302047
  0
LINE
  8
1-1
  6
CONTINUOUS
 62
    7
 10
245.37998
 20
67.302047
 11
245.37904
 21
67.275324
  0
LINE
  8
1-1
  6
CONTINUOUS
 62
    7
 10
245.37904
 20
67.275324
 11
245.37736
 21
67.248142
  0
LINE
  8
1-1
  6
CONTINUOUS
 62
    7
 10
245.37736
 20
67.248142
 11
245.37488
 21
67.220776
  0
LINE
  8
1-1
  6
CONTINUOUS
 62
    7
 10
245.37488
 20
67.220776
 11
245.3731
 21
67.205026
  0
LINE
  8
1-1
  6
CONTINUOUS
 62
    7
 10
245.3731
 20
67.205026
 11
245.37201
 21
67.196192
  0
LINE
  8
1-1
  6
CONTINUOUS
 62
    7
 10
245.37201
 20
67.196192
 11
245.37008
 21
67.180962
  0
LINE
  8
1-1
  6
CONTINUOUS
 62
    7
 10
245.37008
 20
67.180962
 11
245.36825
 21
67.165831
  0
LINE
  8
1-1
  6
CONTINUOUS
 62
    7
 10
245.36825
 20
67.165831
 11
245.36672
 21
67.150701
  0
LINE
  8
1-1
  6
CONTINUOUS
 62
    7
 10
245.36672
 20
67.150701
 11
245.36607
 21
67.141916
  0
LINE
  8
1-1
  6
CONTINUOUS
 62
    7
 10
245.36607
 20
67.141916
 11
245.36568
 21
67.133157
  0
LINE
  8
1-1
  6
CONTINUOUS
 62
    7
 10
245.36568
 20
67.133157
 11
245.36533
 21
67.118014
  0
LINE
  8
1-1
  6
CONTINUOUS
 62
    7
 10
245.36533
 20
67.118014
 11
245.36548
 21
67.102821
  0
LINE
  8
1-1
  6
CONTINUOUS
 62
    7
 10
245.36548
 20
67.102821
 11
245.36582
 21
67.087653
  0
LINE
  8
1-1
  6
CONTINUOUS
 62
    7
 10
245.36582
 20
67.087653
 11
245.36607
 21
67.078819
  0
LINE
  8
1-1
  6
CONTINUOUS
 62
    7
 10
245.38013
 20
67.359268
 11
245.68166
 21
67.913273
  0
LINE
  8
1-1
  6
CONTINUOUS
 62
    7
 10
245.68166
 20
67.913273
 11
245.91301
 21
67.836134
  0
LINE
  8
1-1
  6
CONTINUOUS
 62
    7
 10
245.91301
 20
67.836134
 11
245.4362
 21
67.35229
  0
LINE
  8
1-1
  6
CONTINUOUS
 62
    7
 10
245.4362
 20
67.35229
 11
245.3871
 21
67.35229
  0
LINE
  8
1-1
  6
CONTINUOUS
 62
    7
 10
245.6243
 20
68.326436
 11
246.22434
 21
68.326436
  0
LINE
  8
1-1
  6
CONTINUOUS
 62
    7
 10
245.37434
 20
68.384485
 11
245.57437
 21
68.384485
  0
LINE
  8
1-1
  6
CONTINUOUS
 62
    7
 10
246.27437
 20
68.384485
 11
246.47435
 21
68.384485
  0
LINE
  8
1-1
  6
CONTINUOUS
 62
    7
 10
245.58486
 20
68.926452
 11
246.24612
 21
68.926452
  0
LINE
  8
1-1
  6
CONTINUOUS
 62
    7
 10
246.22434
 20
68.432897
 11
246.22434
 21
68.126405
  0
LINE
  8
1-1
  6
CONTINUOUS
 62
    7
 10
245.58486
 20
68.426426
 11
246.26225
 21
68.426426
  0
LINE
  8
1-1
  6
CONTINUOUS
 62
    7
 10
245.37434
 20
72.185173
 11
245.37434
 21
68.384485
  0
LINE
  8
1-1
  6
CONTINUOUS
 62
    7
 10
246.47435
 20
72.185173
 11
246.47435
 21
68.384485
  0
LINE
  8
1-1
  6
CONTINUOUS
 62
    7
 10
245.37434
 20
72.185173
 11
245.57437
 21
72.185173
  0
LINE
  8
1-1
  6
CONTINUOUS
 62
    7
 10
245.57437
 20
72.185173
 11
245.57437
 21
68.384485
  0
LINE
  8
1-1
  6
CONTINUOUS
 62
    7
 10
246.27437
 20
72.185173
 11
246.47435
 21
72.185173
  0
LINE
  8
1-1
  6
CONTINUOUS
 62
    7
 10
246.27437
 20
72.185173
 11
246.27437
 21
68.384485
  0
LINE
  8
1-1
  6
CONTINUOUS
 62
    7
 10
245.37434
 20
70.685168
 11
245.57437
 21
70.685168
  0
LINE
  8
1-1
  6
CONTINUOUS
 62
    7
 10
245.67433
 20
71.899764
 11
245.70972
 21
71.935147
  0
LINE
  8
1-1
  6
CONTINUOUS
 62
    7
 10
246.13898
 20
71.935147
 11
246.17436
 21
71.899764
  0
LINE
  8
1-1
  6
CONTINUOUS
 62
    7
 10
245.70972
 20
71.935147
 11
245.84952
 21
71.622186
  0
LINE
  8
1-1
  6
CONTINUOUS
 62
    7
 10
246.13898
 20
71.935147
 11
245.99487
 21
71.622186
  0
LINE
  8
1-1
  6
CONTINUOUS
 62
    7
 10
245.70972
 20
69.435164
 11
245.84952
 21
69.748076
  0
LINE
  8
1-1
  6
CONTINUOUS
 62
    7
 10
246.13898
 20
69.435164
 11
245.99487
 21
69.748076
  0
LINE
  8
1-1
  6
CONTINUOUS
 62
    7
 10
245.70972
 20
69.435164
 11
245.70972
 21
70.416683
  0
LINE
  8
1-1
  6
CONTINUOUS
 62
    7
 10
246.13898
 20
69.435164
 11
246.13898
 21
70.400476
  0
LINE
  8
1-1
  6
CONTINUOUS
 62
    7
 10
245.70972
 20
71.935147
 11
245.70972
 21
70.380508
  0
LINE
  8
1-1
  6
CONTINUOUS
 62
    7
 10
246.13898
 20
71.935147
 11
246.13898
 21
70.380508
  0
LINE
  8
1-1
  6
CONTINUOUS
 62
    7
 10
245.67433
 20
71.899764
 11
245.67433
 21
69.470498
  0
LINE
  8
1-1
  6
CONTINUOUS
 62
    7
 10
245.67433
 20
69.470498
 11
245.70972
 21
69.435164
  0
LINE
  8
1-1
  6
CONTINUOUS
 62
    7
 10
246.17436
 20
71.899764
 11
246.17436
 21
69.470498
  0
LINE
  8
1-1
  6
CONTINUOUS
 62
    7
 10
246.13898
 20
69.435164
 11
246.17436
 21
69.470498
  0
LINE
  8
1-1
  6
CONTINUOUS
 62
    7
 10
245.92435
 20
72.661754
 11
245.92435
 21
69.768713
  0
LINE
  8
1-1
  6
CENTER2
 62
    2
 10
63.213302
 20
12.162162
 11
68.295741
 21
12.162162
  0
LINE
  8
1-1
  6
CENTER2
 62
    2
 10
65.675675
 20
12.162162
 11
66.134045
 21
12.162162
  0
LINE
  8
1-1
  6
CENTER2
 62
    2
 10
65.924364
 20
12.44235
 11
65.924364
 21
11.921464
  0
LINE
  8
1-1
  6
CONTINUOUS
 62
    7
 10
61.044356
 20
23.942178
 11
61.044356
 21
23.46019
  0
LINE
  8
1-1
  6
CONTINUOUS
 62
    7
 10
65.924364
 20
23.46019
 11
61.044356
 21
23.46019
  0
LINE
  8
1-1
  6
CONTINUOUS
 62
    7
 10
65.924364
 20
23.46019
 11
70.804335
 21
23.46019
  0
LINE
  8
1-1
  6
CONTINUOUS
 62
    7
 10
70.804335
 20
23.942178
 11
70.804335
 21
23.46019
  0
LINE
  8
1-1
  6
CONTINUOUS
 62
    7
 10
72.77434
 20
33.320963
 11
72.77434
 21
24.182169
  0
LINE
  8
1-1
  6
CONTINUOUS
 62
    7
 10
72.270911
 20
33.832174
 11
70.524332
 21
33.832174
  0
LINE
  8
1-1
  6
CONTINUOUS
 62
    7
 10
239.81837
 20
98.977635
 11
239.84807
 21
99.017869
  0
LINE
  8
1-1
  6
CONTINUOUS
 62
    7
 10
242.05265
 20
99.349203
 11
239.84807
 21
99.017869
  0
LINE
  8
1-1
  6
CONTINUOUS
 62
    7
 10
242.05265
 20
99.349203
 11
242.09289
 21
99.319498
  0
LINE
  8
1-1
  6
CONTINUOUS
 62
    7
 10
239.81837
 20
98.977635
 11
242.07349
 21
99.316578
  0
LINE
  8
1-1
  6
CONTINUOUS
 62
    7
 10
239.81837
 20
98.977635
 11
239.97055
 21
98.870543
  0
LINE
  8
1-1
  6
CONTINUOUS
 62
    7
 10
239.86737
 20
98.652017
 11
239.98129
 21
98.799058
  0
LINE
  8
1-1
  6
CONTINUOUS
 62
    7
 10
239.86737
 20
98.652017
 11
239.87479
 21
98.646511
  0
LINE
  8
1-1
  6
CONTINUOUS
 62
    7
 10
240.9801
 20
98.985751
 11
66.231449
 21
72.721227
  0
LINE
  8
1-1
  6
CONTINUOUS
 62
    7
 10
65.74716
 20
72.64843
 11
244.78162
 21
100.56832
  0
LINE
  8
1-1
  6
CONTINUOUS
 62
    7
 10
245.09141
 20
98.59247
 11
66.103436
 21
70.37619
  0
LINE
  8
1-1
  6
CONTINUOUS
 62
    7
 10
245.42437
 20
90.580282
 11
246.42437
 21
90.580282
  0
LINE
  8
1-1
  6
CONTINUOUS
 62
    7
 10
246.42437
 20
90.580282
 11
246.42437
 21
89.580267
  0
LINE
  8
1-1
  6
CONTINUOUS
 62
    7
 10
245.42437
 20
89.580267
 11
246.42437
 21
89.580267
  0
LINE
  8
1-1
  6
CONTINUOUS
 62
    7
 10
245.92435
 20
98.99284
 11
245.92435
 21
90.580282
  0
LINE
  8
1-1
  6
CONTINUOUS
 62
    7
 10
245.92435
 20
89.580267
 11
245.92435
 21
72.000249
  0
LINE
  8
1-1
  6
CONTINUOUS
 62
    7
 10
240.57247
 20
97.104788
 11
240.76443
 21
96.925815
  0
LINE
  8
1-1
  6
CONTINUOUS
 62
    7
 10
240.85445
 20
97.226256
 11
240.92626
 21
97.033921
  0
LINE
  8
1-1
  6
CONTINUOUS
 62
    7
 10
245.42437
 20
90.580282
 11
245.42437
 21
90.56113
  0
LINE
  8
1-1
  6
CONTINUOUS
 62
    7
 10
245.42437
 20
90.56113
 11
245.42437
 21
89.580267
  0
LINE
  8
1-1
  6
CONTINUOUS
 62
    7
 10
240.72242
 20
96.551413
 11
241.29178
 21
96.958699
  0
LINE
  8
1-1
  6
CONTINUOUS
 62
    7
 10
241.36151
 20
96.947132
 11
241.76879
 21
96.377797
  0
LINE
  8
1-1
  6
CONTINUOUS
 62
    7
 10
241.18785
 20
95.900746
 11
241.75726
 21
96.308044
  0
LINE
  8
1-1
  6
CONTINUOUS
 62
    7
 10
240.71084
 20
96.48166
 11
241.11812
 21
95.912326
  0
LINE
  8
1-1
  6
CONTINUOUS
 62
    7
 10
240.8303
 20
96.899079
 11
240.90008
 21
96.801476
  0
LINE
  8
1-1
  6
CONTINUOUS
 62
    7
 10
240.92789
 20
96.968882
 11
240.99767
 21
96.871304
  0
LINE
  8
1-1
  6
CONTINUOUS
 62
    7
 10
241.55174
 20
95.890514
 11
241.48191
 21
95.988129
  0
LINE
  8
1-1
  6
CONTINUOUS
 62
    7
 10
241.64928
 20
95.960329
 11
241.57955
 21
96.057944
  0
LINE
  8
1-1
  6
CONTINUOUS
 62
    7
 10
245.42437
 20
90.580282
 11
241.6471
 21
95.860376
  0
LINE
  8
1-1
  6
CONTINUOUS
 62
    7
 10
241.31494
 20
97.098218
 11
240.58286
 21
96.574549
  0
LINE
  8
1-1
  6
CONTINUOUS
 62
    7
 10
241.9083
 20
96.354649
 11
241.38467
 21
97.086638
  0
LINE
  8
1-1
  6
CONTINUOUS
 62
    7
 10
241.16474
 20
95.761239
 11
241.89672
 21
96.284896
  0
LINE
  8
1-1
  6
CONTINUOUS
 62
    7
 10
241.09496
 20
95.772819
 11
240.57133
 21
96.504808
  0
LINE
  8
1-1
  6
CONTINUOUS
 62
    7
 10
114.73981
 20
53.083951
 11
116.37905
 21
48.81361
  0
LINE
  8
1-1
  6
CONTINUOUS
 62
    7
 10
114.6823
 20
52.954744
 11
114.6823
 21
48.370377
  0
LINE
  8
1-1
  6
CONTINUOUS
 62
    7
 10
200.73744
 20
79.942906
 11
244.22317
 21
98.67759
  0
LINE
  8
1-1
  6
CONTINUOUS
 62
    7
 10
246.08112
 20
99.478033
 11
246.21603
 21
99.536156
  0
LINE
  8
1-1
  6
CONTINUOUS
 62
    7
 10
198.40856
 20
86.009858
 11
243.81727
 21
99.848005
  0
LINE
  8
1-1
  6
CONTINUOUS
 62
    7
 10
245.81329
 20
100.45628
 11
245.85816
 21
100.46995
  0
LINE
  8
1-1
  6
CONTINUOUS
 62
    7
 10
79.209612
 20
69.403492
 11
85.29018
 21
118.57093
  0
LINE
  8
1-1
  6
CONTINUOUS
 62
    7
 10
72.758714
 20
70.201275
 11
78.84269
 21
119.39629
  0
LINE
  8
1-1
  6
CONTINUOUS
 62
    7
 10
85.346404
 20
119.02545
 11
91.426929
 21
168.19286
  0
LINE
  8
1-1
  6
CONTINUOUS
 62
    7
 10
78.895493
 20
119.82327
 11
84.982062
 21
169.03945
  0
LINE
  8
1-1
  6
CONTINUOUS
 62
    7
 10
72.678407
 20
33.689429
 11
79.163526
 21
69.086571
  0
LINE
  8
1-1
  6
CONTINUOUS
 62
    7
 10
71.860408
 20
33.754011
 11
72.723454
 21
69.905962
  0
LINE
  8
1-1
  6
CONTINUOUS
 62
    7
 10
91.476299
 20
168.64257
 11
95.391051
 21
215.83017
  0
LINE
  8
1-1
  6
CONTINUOUS
 62
    7
 10
85.026854
 20
169.44019
 11
94.167232
 21
216.02236
  0
LINE
  8
1-1
  6
CONTINUOUS
 62
    7
 10
95.624318
 20
186.19067
 11
95.624318
 21
185.91648
  0
LINE
  8
1-1
  6
CONTINUOUS
 62
    7
 10
95.624318
 20
185.91648
 11
96.22436
 21
185.91648
  0
LINE
  8
1-1
  6
CONTINUOUS
 62
    7
 10
96.22436
 20
185.91648
 11
96.22629
 21
185.89285
  0
LINE
  8
1-1
  6
CONTINUOUS
 62
    7
 10
96.22629
 20
185.89285
 11
96.230051
 21
185.85234
  0
LINE
  8
1-1
  6
CONTINUOUS
 62
    7
 10
96.230051
 20
185.85234
 11
96.235445
 21
185.8126
  0
LINE
  8
1-1
  6
CONTINUOUS
 62
    7
 10
96.235445
 20
185.8126
 11
96.243462
 21
185.77403
  0
LINE
  8
1-1
  6
CONTINUOUS
 62
    7
 10
96.243462
 20
185.77403
 11
96.249648
 21
185.75241
  0
LINE
  8
1-1
  6
CONTINUOUS
 62
    7
 10
96.249648
 20
185.75241
 11
96.270582
 21
185.70192
  0
LINE
  8
1-1
  6
CONTINUOUS
 62
    7
 10
96.270582
 20
185.70192
 11
96.323138
 21
185.62243
  0
LINE
  8
1-1
  6
CONTINUOUS
 62
    7
 10
96.323138
 20
185.62243
 11
96.391283
 21
185.55014
  0
LINE
  8
1-1
  6
CONTINUOUS
 62
    7
 10
96.391283
 20
185.55014
 11
96.469028
 21
185.48229
  0
LINE
  8
1-1
  6
CONTINUOUS
 62
    7
 10
96.469028
 20
185.48229
 11
96.516091
 21
185.44389
  0
LINE
  8
1-1
  6
CONTINUOUS
 62
    7
 10
95.624318
 20
185.91648
 11
95.626001
 21
185.88938
  0
LINE
  8
1-1
  6
CONTINUOUS
 62
    7
 10
95.626001
 20
185.88938
 11
95.629317
 21
185.84277
  0
LINE
  8
1-1
  6
CONTINUOUS
 62
    7
 10
95.629317
 20
185.84277
 11
95.634018
 21
185.79649
  0
LINE
  8
1-1
  6
CONTINUOUS
 62
    7
 10
95.634018
 20
185.79649
 11
95.641045
 21
185.75063
  0
LINE
  8
1-1
  6
CONTINUOUS
 62
    7
 10
95.641045
 20
185.75063
 11
95.646588
 21
185.72434
  0
LINE
  8
1-1
  6
CONTINUOUS
 62
    7
 10
95.646588
 20
185.72434
 11
95.652229
 21
185.70224
  0
LINE
  8
1-1
  6
CONTINUOUS
 62
    7
 10
95.652229
 20
185.70224
 11
95.66381
 21
185.66458
  0
LINE
  8
1-1
  6
CONTINUOUS
 62
    7
 10
95.66381
 20
185.66458
 11
95.677567
 21
185.62749
  0
LINE
  8
1-1
  6
CONTINUOUS
 62
    7
 10
95.677567
 20
185.62749
 11
95.693057
 21
185.59102
  0
LINE
  8
1-1
  6
CONTINUOUS
 62
    7
 10
95.693057
 20
185.59102
 11
95.702658
 21
185.57009
  0
LINE
  8
1-1
  6
CONTINUOUS
 62
    7
 10
95.702658
 20
185.57009
 11
95.713595
 21
185.54752
  0
LINE
  8
1-1
  6
CONTINUOUS
 62
    7
 10
95.713595
 20
185.54752
 11
95.733687
 21
185.50923
  0
LINE
  8
1-1
  6
CONTINUOUS
 62
    7
 10
95.733687
 20
185.50923
 11
95.755412
 21
185.47198
  0
LINE
  8
1-1
  6
CONTINUOUS
 62
    7
 10
95.755412
 20
185.47198
 11
95.779117
 21
185.43604
  0
LINE
  8
1-1
  6
CONTINUOUS
 62
    7
 10
95.779117
 20
185.43604
 11
95.793815
 21
185.41585
  0
LINE
  8
1-1
  6
CONTINUOUS
 62
    7
 10
95.793815
 20
185.41585
 11
95.805345
 21
185.40106
  0
LINE
  8
1-1
  6
CONTINUOUS
 62
    7
 10
95.805345
 20
185.40106
 11
95.826081
 21
185.37637
  0
LINE
  8
1-1
  6
CONTINUOUS
 62
    7
 10
95.826081
 20
185.37637
 11
95.848053
 21
185.35274
  0
LINE
  8
1-1
  6
CONTINUOUS
 62
    7
 10
95.848053
 20
185.35274
 11
95.871115
 21
185.33018
  0
LINE
  8
1-1
  6
CONTINUOUS
 62
    7
 10
95.871115
 20
185.33018
 11
95.884971
 21
185.31762
  0
LINE
  8
1-1
  6
CONTINUOUS
 62
    7
 10
95.884971
 20
185.31762
 11
95.894473
 21
185.30946
  0
LINE
  8
1-1
  6
CONTINUOUS
 62
    7
 10
95.894473
 20
185.30946
 11
95.911101
 21
185.29574
  0
LINE
  8
1-1
  6
CONTINUOUS
 62
    7
 10
95.911101
 20
185.29574
 11
95.928075
 21
185.28236
  0
LINE
  8
1-1
  6
CONTINUOUS
 62
    7
 10
95.928075
 20
185.28236
 11
95.945198
 21
185.26915
  0
LINE
  8
1-1
  6
CONTINUOUS
 62
    7
 10
95.945198
 20
185.26915
 11
95.955145
 21
185.26158
  0
LINE
  8
1-1
  6
CONTINUOUS
 62
    7
 10
95.074359
 20
184.83519
 11
95.075695
 21
184.86178
  0
LINE
  8
1-1
  6
CONTINUOUS
 62
    7
 10
95.075695
 20
184.86178
 11
95.078713
 21
184.90734
  0
LINE
  8
1-1
  6
CONTINUOUS
 62
    7
 10
95.078713
 20
184.90734
 11
95.08386
 21
184.9527
  0
LINE
  8
1-1
  6
CONTINUOUS
 62
    7
 10
95.08386
 20
184.9527
 11
95.092521
 21
184.99746
  0
LINE
  8
1-1
  6
CONTINUOUS
 62
    7
 10
95.092521
 20
184.99746
 11
95.099647
 21
185.02315
  0
LINE
  8
1-1
  6
CONTINUOUS
 62
    7
 10
95.099647
 20
185.02315
 11
95.10806
 21
185.04713
  0
LINE
  8
1-1
  6
CONTINUOUS
 62
    7
 10
95.10806
 20
185.04713
 11
95.126172
 21
185.08728
  0
LINE
  8
1-1
  6
CONTINUOUS
 62
    7
 10
95.126172
 20
185.08728
 11
95.148442
 21
185.12508
  0
LINE
  8
1-1
  6
CONTINUOUS
 62
    7
 10
95.148442
 20
185.12508
 11
95.174324
 21
185.15944
  0
LINE
  8
1-1
  6
CONTINUOUS
 62
    7
 10
95.174324
 20
185.15944
 11
95.190804
 21
185.17741
  0
LINE
  8
1-1
  6
CONTINUOUS
 62
    7
 10
95.190804
 20
185.17741
 11
95.203621
 21
185.1896
  0
LINE
  8
1-1
  6
CONTINUOUS
 62
    7
 10
95.203621
 20
185.1896
 11
95.227276
 21
185.20865
  0
LINE
  8
1-1
  6
CONTINUOUS
 62
    7
 10
95.227276
 20
185.20865
 11
95.253703
 21
185.2253
  0
LINE
  8
1-1
  6
CONTINUOUS
 62
    7
 10
95.253703
 20
185.2253
 11
95.283693
 21
185.2399
  0
LINE
  8
1-1
  6
CONTINUOUS
 62
    7
 10
95.283693
 20
185.2399
 11
95.302993
 21
185.24755
  0
LINE
  8
1-1
  6
CONTINUOUS
 62
    7
 10
95.302993
 20
185.24755
 11
95.312792
 21
185.25096
  0
LINE
  8
1-1
  6
CONTINUOUS
 62
    7
 10
95.312792
 20
185.25096
 11
95.329766
 21
185.2558
  0
LINE
  8
1-1
  6
CONTINUOUS
 62
    7
 10
95.329766
 20
185.2558
 11
95.3458
 21
185.25831
  0
LINE
  8
1-1
  6
CONTINUOUS
 62
    7
 10
95.3458
 20
185.25831
 11
95.359657
 21
185.25729
  0
LINE
  8
1-1
  6
CONTINUOUS
 62
    7
 10
95.359657
 20
185.25729
 11
95.36609
 21
185.25453
  0
LINE
  8
1-1
  6
CONTINUOUS
 62
    7
 10
95.36609
 20
185.25453
 11
95.372672
 21
185.24809
  0
LINE
  8
1-1
  6
CONTINUOUS
 62
    7
 10
95.372672
 20
185.24809
 11
95.379056
 21
185.23085
  0
LINE
  8
1-1
  6
CONTINUOUS
 62
    7
 10
95.379056
 20
185.23085
 11
95.381035
 21
185.20853
  0
LINE
  8
1-1
  6
CONTINUOUS
 62
    7
 10
95.381035
 20
185.20853
 11
95.38064
 21
185.18423
  0
LINE
  8
1-1
  6
CONTINUOUS
 62
    7
 10
95.38064
 20
185.18423
 11
95.380145
 21
185.17042
  0
LINE
  8
1-1
  6
CONTINUOUS
 62
    7
 10
95.380145
 20
185.17042
 11
95.379897
 21
185.1607
  0
LINE
  8
1-1
  6
CONTINUOUS
 62
    7
 10
95.379897
 20
185.1607
 11
95.379848
 21
185.14499
  0
LINE
  8
1-1
  6
CONTINUOUS
 62
    7
 10
95.379848
 20
185.14499
 11
95.379947
 21
185.13011
  0
LINE
  8
1-1
  6
CONTINUOUS
 62
    7
 10
95.379947
 20
185.13011
 11
95.380095
 21
185.11566
  0
LINE
  8
1-1
  6
CONTINUOUS
 62
    7
 10
95.380095
 20
185.11566
 11
95.380145
 21
185.10728
  0
LINE
  8
1-1
  6
CONTINUOUS
 62
    7
 10
95.380145
 20
185.10728
 11
95.379996
 21
185.09212
  0
LINE
  8
1-1
  6
CONTINUOUS
 62
    7
 10
95.379996
 20
185.09212
 11
95.379056
 21
185.0654
  0
LINE
  8
1-1
  6
CONTINUOUS
 62
    7
 10
95.379056
 20
185.0654
 11
95.377373
 21
185.03821
  0
LINE
  8
1-1
  6
CONTINUOUS
 62
    7
 10
95.377373
 20
185.03821
 11
95.374899
 21
185.01085
  0
LINE
  8
1-1
  6
CONTINUOUS
 62
    7
 10
95.374899
 20
185.01085
 11
95.373117
 21
184.9951
  0
LINE
  8
1-1
  6
CONTINUOUS
 62
    7
 10
95.373117
 20
184.9951
 11
95.372029
 21
184.98626
  0
LINE
  8
1-1
  6
CONTINUOUS
 62
    7
 10
95.372029
 20
184.98626
 11
95.370099
 21
184.97103
  0
LINE
  8
1-1
  6
CONTINUOUS
 62
    7
 10
95.370099
 20
184.97103
 11
95.368268
 21
184.9559
  0
LINE
  8
1-1
  6
CONTINUOUS
 62
    7
 10
95.368268
 20
184.9559
 11
95.366733
 21
184.94077
  0
LINE
  8
1-1
  6
CONTINUOUS
 62
    7
 10
95.366733
 20
184.94077
 11
95.36609
 21
184.93199
  0
LINE
  8
1-1
  6
CONTINUOUS
 62
    7
 10
95.36609
 20
184.93199
 11
95.365694
 21
184.92323
  0
LINE
  8
1-1
  6
CONTINUOUS
 62
    7
 10
95.365694
 20
184.92323
 11
95.365348
 21
184.90809
  0
LINE
  8
1-1
  6
CONTINUOUS
 62
    7
 10
95.365348
 20
184.90809
 11
95.365496
 21
184.89289
  0
LINE
  8
1-1
  6
CONTINUOUS
 62
    7
 10
95.365496
 20
184.89289
 11
95.365843
 21
184.87773
  0
LINE
  8
1-1
  6
CONTINUOUS
 62
    7
 10
95.365843
 20
184.87773
 11
95.36609
 21
184.86889
  0
LINE
  8
1-1
  6
CONTINUOUS
 62
    7
 10
95.380145
 20
185.14934
 11
95.681675
 21
185.70335
  0
LINE
  8
1-1
  6
CONTINUOUS
 62
    7
 10
95.681675
 20
185.70335
 11
95.913031
 21
185.62621
  0
LINE
  8
1-1
  6
CONTINUOUS
 62
    7
 10
95.913031
 20
185.62621
 11
95.436215
 21
185.14236
  0
LINE
  8
1-1
  6
CONTINUOUS
 62
    7
 10
95.436215
 20
185.14236
 11
95.387122
 21
185.14236
  0
LINE
  8
1-1
  6
CONTINUOUS
 62
    7
 10
95.624318
 20
186.11651
 11
96.22436
 21
186.11651
  0
LINE
  8
1-1
  6
CONTINUOUS
 62
    7
 10
95.374355
 20
186.17456
 11
95.574385
 21
186.17456
  0
LINE
  8
1-1
  6
CONTINUOUS
 62
    7
 10
96.274392
 20
186.17456
 11
96.474373
 21
186.17456
  0
LINE
  8
1-1
  6
CONTINUOUS
 62
    7
 10
95.584876
 20
186.71652
 11
96.246135
 21
186.71652
  0
LINE
  8
1-1
  6
CONTINUOUS
 62
    7
 10
96.22436
 20
186.22297
 11
96.22436
 21
185.91648
  0
LINE
  8
1-1
  6
CONTINUOUS
 62
    7
 10
95.584876
 20
186.2165
 11
96.262268
 21
186.2165
  0
LINE
  8
1-1
  6
CONTINUOUS
 62
    7
 10
95.374355
 20
189.97525
 11
95.374355
 21
186.17456
  0
LINE
  8
1-1
  6
CONTINUOUS
 62
    7
 10
96.474373
 20
189.97525
 11
96.474373
 21
186.17456
  0
LINE
  8
1-1
  6
CONTINUOUS
 62
    7
 10
95.374355
 20
189.97525
 11
95.574385
 21
189.97525
  0
LINE
  8
1-1
  6
CONTINUOUS
 62
    7
 10
95.574385
 20
189.97525
 11
95.574385
 21
186.17456
  0
LINE
  8
1-1
  6
CONTINUOUS
 62
    7
 10
96.274392
 20
189.97525
 11
96.474373
 21
189.97525
  0
LINE
  8
1-1
  6
CONTINUOUS
 62
    7
 10
96.274392
 20
189.97525
 11
96.274392
 21
186.17456
  0
LINE
  8
1-1
  6
CONTINUOUS
 62
    7
 10
95.374355
 20
188.47524
 11
95.574385
 21
188.47524
  0
LINE
  8
1-1
  6
CONTINUOUS
 62
    7
 10
95.674351
 20
189.68984
 11
95.709735
 21
189.72522
  0
LINE
  8
1-1
  6
CONTINUOUS
 62
    7
 10
96.138993
 20
189.72522
 11
96.174377
 21
189.68984
  0
LINE
  8
1-1
  6
CONTINUOUS
 62
    7
 10
95.709735
 20
189.72522
 11
95.849538
 21
189.41226
  0
LINE
  8
1-1
  6
CONTINUOUS
 62
    7
 10
96.138993
 20
189.72522
 11
95.994884
 21
189.41226
  0
LINE
  8
1-1
  6
CONTINUOUS
 62
    7
 10
95.709735
 20
187.22524
 11
95.849538
 21
187.53815
  0
LINE
  8
1-1
  6
CONTINUOUS
 62
    7
 10
96.138993
 20
187.22524
 11
95.994884
 21
187.53815
  0
LINE
  8
1-1
  6
CONTINUOUS
 62
    7
 10
95.709735
 20
187.22524
 11
95.709735
 21
188.20676
  0
LINE
  8
1-1
  6
CONTINUOUS
 62
    7
 10
96.138993
 20
187.22524
 11
96.138993
 21
188.19055
  0
LINE
  8
1-1
  6
CONTINUOUS
 62
    7
 10
95.709735
 20
189.72522
 11
95.709735
 21
188.17058
  0
LINE
  8
1-1
  6
CONTINUOUS
 62
    7
 10
96.138993
 20
189.72522
 11
96.138993
 21
188.17058
  0
LINE
  8
1-1
  6
CONTINUOUS
 62
    7
 10
95.674351
 20
189.68984
 11
95.674351
 21
187.26057
  0
LINE
  8
1-1
  6
CONTINUOUS
 62
    7
 10
95.674351
 20
187.26057
 11
95.709735
 21
187.22524
  0
LINE
  8
1-1
  6
CONTINUOUS
 62
    7
 10
96.174377
 20
189.68984
 11
96.174377
 21
187.26057
  0
LINE
  8
1-1
  6
CONTINUOUS
 62
    7
 10
96.138993
 20
187.22524
 11
96.174377
 21
187.26057
  0
LINE
  8
1-1
  6
CONTINUOUS
 62
    7
 10
95.924364
 20
190.45183
 11
95.924364
 21
187.55879
  0
LINE
  8
1-1
  6
CONTINUOUS
 62
    7
 10
95.924364
 20
216.78291
 11
95.924364
 21
208.37035
  0
LINE
  8
1-1
  6
CONTINUOUS
 62
    7
 10
95.924364
 20
209.59239
 11
95.924364
 21
189.79032
  0
LINE
  8
1-1
  6
CENTER2
 62
    2
 10
28.378378
 20
247.29729
 11
145.13513
 21
247.29729
  0
LINE
  8
1-1
  6
CENTER1
 62
    2
 10
52.725769
 20
250.55788
 11
52.725769
 21
252.40865
  0
LINE
  8
1-1
  6
CENTER1
 62
    2
 10
52.725769
 20
243.77177
 11
52.725769
 21
242.04439
  0
LINE
  8
1-1
  6
CONTINUOUS
 62
    7
 10
52.225768
 20
250.95702
 11
53.40587
 21
250.95702
  0
LINE
  8
1-1
  6
CONTINUOUS
 62
    7
 10
52.225768
 20
243.52497
 11
52.225768
 21
243.63766
  0
LINE
  8
1-1
  6
CONTINUOUS
 62
    7
 10
52.225768
 20
250.96024
 11
52.225768
 21
251.07701
  0
LINE
  8
1-1
  6
CONTINUOUS
 62
    7
 10
52.225768
 20
243.14703
 11
52.225768
 21
243.26702
  0
LINE
  8
1-1
  6
CONTINUOUS
 62
    7
 10
52.675762
 20
251.56701
 11
54.175767
 21
251.56701
  0
LINE
  8
1-1
  6
CONTINUOUS
 62
    7
 10
54.175767
 20
243.02702
 11
52.675762
 21
243.02702
  0
LINE
  8
1-1
  6
CONTINUOUS
 62
    7
 10
52.675762
 20
251.20701
 11
54.175767
 21
251.20701
  0
LINE
  8
1-1
  6
CONTINUOUS
 62
    7
 10
52.675762
 20
251.56701
 11
52.675762
 21
251.4521
  0
LINE
  8
1-1
  6
CONTINUOUS
 62
    7
 10
52.675762
 20
251.33358
 11
52.675762
 21
251.20701
  0
LINE
  8
1-1
  6
CONTINUOUS
 62
    7
 10
53.425764
 20
251.33358
 11
53.425764
 21
251.447
  0
LINE
  8
1-1
  6
CONTINUOUS
 62
    7
 10
54.175767
 20
251.56701
 11
54.175767
 21
251.4521
  0
LINE
  8
1-1
  6
CONTINUOUS
 62
    7
 10
54.175767
 20
243.26702
 11
52.225768
 21
243.26702
  0
LINE
  8
1-1
  6
CONTINUOUS
 62
    7
 10
54.175767
 20
243.387
 11
52.675762
 21
243.387
  0
LINE
  8
1-1
  6
CONTINUOUS
 62
    7
 10
52.675762
 20
243.387
 11
52.675762
 21
243.26922
  0
LINE
  8
1-1
  6
CONTINUOUS
 62
    7
 10
52.675762
 20
243.14134
 11
52.675762
 21
243.02702
  0
LINE
  8
1-1
  6
CONTINUOUS
 62
    7
 10
54.175767
 20
243.387
 11
54.175767
 21
243.26922
  0
LINE
  8
1-1
  6
CONTINUOUS
 62
    7
 10
54.175767
 20
243.14134
 11
54.175767
 21
243.02702
  0
LINE
  8
1-1
  6
CONTINUOUS
 62
    7
 10
53.425764
 20
243.14703
 11
53.425764
 21
243.26214
  0
LINE
  8
1-1
  6
CONTINUOUS
 62
    7
 10
53.425764
 20
243.39002
 11
53.425764
 21
251.19922
  0
LINE
  8
1-1
  6
CONTINUOUS
 62
    7
 10
53.423117
 20
243.63701
 11
52.225768
 21
243.63701
  0
LINE
  8
1-1
  6
CONTINUOUS
 62
    7
 10
53.423117
 20
243.517
 11
52.225768
 21
243.517
  0
LINE
  8
1-1
  6
CENTER1
 62
    2
 10
70.625764
 20
251.94584
 11
70.625764
 21
250.67801
  0
LINE
  8
1-1
  6
CENTER1
 62
    2
 10
70.625764
 20
243.91603
 11
70.625764
 21
242.78904
  0
LINE
  8
1-1
  6
CENTER1
 62
    2
 10
72.325762
 20
244.05692
 11
72.325762
 21
242.64814
  0
LINE
  8
1-1
  6
CONTINUOUS
 62
    7
 10
70.025759
 20
251.43755
 11
70.025759
 21
251.327
  0
LINE
  8
1-1
  6
CONTINUOUS
 62
    7
 10
71.225768
 20
251.43755
 11
71.225768
 21
251.327
  0
LINE
  8
1-1
  6
CONTINUOUS
 62
    7
 10
71.725758
 20
251.43755
 11
71.725758
 21
251.327
  0
LINE
  8
1-1
  6
CONTINUOUS
 62
    7
 10
70.225765
 20
251.27701
 11
71.025763
 21
251.27701
  0
LINE
  8
1-1
  6
CONTINUOUS
 62
    7
 10
71.925763
 20
251.27701
 11
72.725761
 21
251.27701
  0
LINE
  8
1-1
  6
CONTINUOUS
 62
    7
 10
52.225768
 20
251.327
 11
54.175767
 21
251.327
  0
LINE
  8
1-1
  6
CONTINUOUS
 62
    7
 10
54.175767
 20
251.327
 11
54.175767
 21
251.20701
  0
LINE
  8
1-1
  6
CONTINUOUS
 62
    7
 10
70.225765
 20
251.327
 11
70.225765
 21
251.27701
  0
LINE
  8
1-1
  6
CONTINUOUS
 62
    7
 10
71.025763
 20
251.327
 11
71.225768
 21
251.327
  0
LINE
  8
1-1
  6
CONTINUOUS
 62
    7
 10
71.025763
 20
251.327
 11
71.025763
 21
251.27701
  0
LINE
  8
1-1
  6
CONTINUOUS
 62
    7
 10
71.925763
 20
251.327
 11
71.925763
 21
251.27701
  0
LINE
  8
1-1
  6
CONTINUOUS
 62
    7
 10
72.725761
 20
251.327
 11
72.925767
 21
251.327
  0
LINE
  8
1-1
  6
CONTINUOUS
 62
    7
 10
72.725761
 20
251.327
 11
72.725761
 21
251.27701
  0
LINE
  8
1-1
  6
CONTINUOUS
 62
    7
 10
70.025759
 20
251.327
 11
71.03018
 21
251.327
  0
LINE
  8
1-1
  6
CONTINUOUS
 62
    7
 10
71.725758
 20
251.327
 11
72.713018
 21
251.327
  0
LINE
  8
1-1
  6
CENTER1
 62
    2
 10
69.567835
 20
251.04699
 11
72.925767
 21
251.04699
  0
LINE
  8
1-1
  6
CONTINUOUS
 62
    7
 10
72.925767
 20
250.65643
 11
72.925767
 21
250.90937
  0
LINE
  8
1-1
  6
CONTINUOUS
 62
    7
 10
70.025759
 20
250.65643
 11
70.025759
 21
250.76699
  0
LINE
  8
1-1
  6
CONTINUOUS
 62
    7
 10
71.725758
 20
250.65643
 11
71.725758
 21
250.76699
  0
LINE
  8
1-1
  6
CONTINUOUS
 62
    7
 10
70.225765
 20
250.817
 11
71.025763
 21
250.817
  0
LINE
  8
1-1
  6
CONTINUOUS
 62
    7
 10
71.925763
 20
250.817
 11
72.725761
 21
250.817
  0
LINE
  8
1-1
  6
CONTINUOUS
 62
    7
 10
70.225765
 20
250.76699
 11
70.225765
 21
250.817
  0
LINE
  8
1-1
  6
CONTINUOUS
 62
    7
 10
71.025763
 20
250.76699
 11
71.225768
 21
250.76699
  0
LINE
  8
1-1
  6
CONTINUOUS
 62
    7
 10
71.025763
 20
250.76699
 11
71.025763
 21
250.817
  0
LINE
  8
1-1
  6
CONTINUOUS
 62
    7
 10
71.925763
 20
250.76699
 11
71.925763
 21
250.817
  0
LINE
  8
1-1
  6
CONTINUOUS
 62
    7
 10
72.725761
 20
250.76699
 11
72.925767
 21
250.76699
  0
LINE
  8
1-1
  6
CONTINUOUS
 62
    7
 10
72.725761
 20
250.76699
 11
72.725761
 21
250.817
  0
LINE
  8
1-1
  6
CONTINUOUS
 62
    7
 10
70.025759
 20
250.76699
 11
71.03018
 21
250.76699
  0
LINE
  8
1-1
  6
CONTINUOUS
 62
    7
 10
71.725758
 20
250.76699
 11
72.713018
 21
250.76699
  0
LINE
  8
1-1
  6
CONTINUOUS
 62
    7
 10
71.225768
 20
250.64701
 11
71.225768
 21
250.76699
  0
LINE
  8
1-1
  6
CONTINUOUS
 62
    7
 10
70.025759
 20
250.64701
 11
71.225768
 21
250.64701
  0
LINE
  8
1-1
  6
CONTINUOUS
 62
    7
 10
71.725758
 20
250.64701
 11
72.916673
 21
250.64701
  0
LINE
  8
1-1
  6
CENTER1
 62
    2
 10
51.535906
 20
247.29702
 11
74.357565
 21
247.29702
  0
LINE
  8
1-1
  6
CENTER1
 62
    2
 10
72.325762
 20
242.71861
 11
72.325762
 21
244.05692
  0
LINE
  8
1-1
  6
CENTER1
 62
    2
 10
70.625764
 20
242.64814
 11
70.625764
 21
243.91603
  0
LINE
  8
1-1
  6
CONTINUOUS
 62
    7
 10
72.925767
 20
243.15646
 11
72.925767
 21
243.40937
  0
LINE
  8
1-1
  6
CONTINUOUS
 62
    7
 10
70.025759
 20
243.15646
 11
70.025759
 21
243.26702
  0
LINE
  8
1-1
  6
CONTINUOUS
 62
    7
 10
71.225768
 20
243.15646
 11
71.225768
 21
243.26702
  0
LINE
  8
1-1
  6
CONTINUOUS
 62
    7
 10
71.725758
 20
243.15646
 11
71.725758
 21
243.26702
  0
LINE
  8
1-1
  6
CONTINUOUS
 62
    7
 10
70.225765
 20
243.31702
 11
71.025763
 21
243.31702
  0
LINE
  8
1-1
  6
CONTINUOUS
 62
    7
 10
71.925763
 20
243.31702
 11
72.725761
 21
243.31702
  0
LINE
  8
1-1
  6
CONTINUOUS
 62
    7
 10
70.225765
 20
243.26702
 11
70.225765
 21
243.31702
  0
LINE
  8
1-1
  6
CONTINUOUS
 62
    7
 10
71.025763
 20
243.26702
 11
71.225768
 21
243.26702
  0
LINE
  8
1-1
  6
CONTINUOUS
 62
    7
 10
71.025763
 20
243.26702
 11
71.025763
 21
243.31702
  0
LINE
  8
1-1
  6
CONTINUOUS
 62
    7
 10
71.925763
 20
243.26702
 11
71.925763
 21
243.31702
  0
LINE
  8
1-1
  6
CONTINUOUS
 62
    7
 10
72.725761
 20
243.26702
 11
72.925767
 21
243.26702
  0
LINE
  8
1-1
  6
CONTINUOUS
 62
    7
 10
72.725761
 20
243.26702
 11
72.725761
 21
243.31702
  0
LINE
  8
1-1
  6
CONTINUOUS
 62
    7
 10
70.025759
 20
243.26702
 11
71.03018
 21
243.26702
  0
LINE
  8
1-1
  6
CONTINUOUS
 62
    7
 10
71.725758
 20
243.26702
 11
72.713018
 21
243.26702
  0
LINE
  8
1-1
  6
CENTER1
 62
    2
 10
69.567835
 20
243.54702
 11
72.925767
 21
243.54702
  0
LINE
  8
1-1
  6
CONTINUOUS
 62
    7
 10
72.925767
 20
243.93758
 11
72.925767
 21
243.68467
  0
LINE
  8
1-1
  6
CONTINUOUS
 62
    7
 10
70.025759
 20
243.93758
 11
70.025759
 21
243.82702
  0
LINE
  8
1-1
  6
CONTINUOUS
 62
    7
 10
71.725758
 20
243.93758
 11
71.725758
 21
243.82702
  0
LINE
  8
1-1
  6
CONTINUOUS
 62
    7
 10
70.225765
 20
243.77701
 11
71.025763
 21
243.77701
  0
LINE
  8
1-1
  6
CONTINUOUS
 62
    7
 10
71.925763
 20
243.77701
 11
72.725761
 21
243.77701
  0
LINE
  8
1-1
  6
CONTINUOUS
 62
    7
 10
70.225765
 20
243.82702
 11
70.225765
 21
243.77701
  0
LINE
  8
1-1
  6
CONTINUOUS
 62
    7
 10
71.025763
 20
243.82702
 11
71.225768
 21
243.82702
  0
LINE
  8
1-1
  6
CONTINUOUS
 62
    7
 10
71.025763
 20
243.82702
 11
71.025763
 21
243.77701
  0
LINE
  8
1-1
  6
CONTINUOUS
 62
    7
 10
71.925763
 20
243.82702
 11
71.925763
 21
243.77701
  0
LINE
  8
1-1
  6
CONTINUOUS
 62
    7
 10
72.725761
 20
243.82702
 11
72.925767
 21
243.82702
  0
LINE
  8
1-1
  6
CONTINUOUS
 62
    7
 10
72.725761
 20
243.82702
 11
72.725761
 21
243.77701
  0
LINE
  8
1-1
  6
CONTINUOUS
 62
    7
 10
70.025759
 20
243.82702
 11
71.03018
 21
243.82702
  0
LINE
  8
1-1
  6
CONTINUOUS
 62
    7
 10
71.725758
 20
243.82702
 11
72.713018
 21
243.82702
  0
LINE
  8
1-1
  6
CONTINUOUS
 62
    7
 10
71.225768
 20
243.947
 11
71.225768
 21
243.82702
  0
LINE
  8
1-1
  6
CONTINUOUS
 62
    7
 10
70.025759
 20
243.947
 11
71.225768
 21
243.947
  0
LINE
  8
1-1
  6
CONTINUOUS
 62
    7
 10
71.725758
 20
243.947
 11
72.916673
 21
243.947
  0
LINE
  8
1-1
  6
CENTER1
 62
    2
 10
56.825761
 20
243.39002
 11
56.825761
 21
251.19922
  0
LINE
  8
1-1
  6
CONTINUOUS
 62
    7
 10
57.975762
 20
252.64699
 11
55.675759
 21
252.64699
  0
LINE
  8
1-1
  6
CONTINUOUS
 62
    7
 10
58.225763
 20
252.44701
 11
55.425758
 21
252.44701
  0
LINE
  8
1-1
  6
CONTINUOUS
 62
    7
 10
55.575756
 20
252.547
 11
55.575756
 21
252.4474
  0
LINE
  8
1-1
  6
CONTINUOUS
 62
    7
 10
58.075765
 20
252.547
 11
58.075765
 21
252.4474
  0
LINE
  8
1-1
  6
CONTINUOUS
 62
    7
 10
58.575766
 20
251.54702
 11
55.075755
 21
251.54702
  0
LINE
  8
1-1
  6
CONTINUOUS
 62
    7
 10
58.325766
 20
252.34699
 11
58.325766
 21
251.53846
  0
LINE
  8
1-1
  6
CONTINUOUS
 62
    7
 10
55.325756
 20
252.34699
 11
55.325756
 21
251.54984
  0
LINE
  8
1-1
  6
CONTINUOUS
 62
    7
 10
58.770761
 20
250.84701
 11
54.88076
 21
250.84701
  0
LINE
  8
1-1
  6
CONTINUOUS
 62
    7
 10
58.850759
 20
250.727
 11
58.850759
 21
250.76699
  0
LINE
  8
1-1
  6
CONTINUOUS
 62
    7
 10
54.800763
 20
250.727
 11
54.800763
 21
250.76699
  0
LINE
  8
1-1
  6
CONTINUOUS
 62
    7
 10
54.88076
 20
250.64698
 11
58.770761
 21
250.64698
  0
LINE
  8
1-1
  6
CONTINUOUS
 62
    7
 10
55.075755
 20
251.54702
 11
55.075755
 21
250.84538
  0
LINE
  8
1-1
  6
CONTINUOUS
 62
    7
 10
58.575766
 20
251.54702
 11
58.575766
 21
250.84538
  0
LINE
  8
1-1
  6
CONTINUOUS
 62
    7
 10
54.975764
 20
250.62699
 11
54.975764
 21
250.6409
  0
LINE
  8
1-1
  6
CONTINUOUS
 62
    7
 10
58.675757
 20
250.62699
 11
58.675757
 21
250.6409
  0
LINE
  8
1-1
  6
CONTINUOUS
 62
    7
 10
58.595759
 20
250.54702
 11
55.055762
 21
250.54702
  0
LINE
  8
1-1
  6
CENTER1
 62
    2
 10
58.595759
 20
249.447
 11
55.055762
 21
249.447
  0
LINE
  8
1-1
  6
CONTINUOUS
 62
    7
 10
58.770761
 20
248.04698
 11
54.88076
 21
248.04698
  0
LINE
  8
1-1
  6
CONTINUOUS
 62
    7
 10
58.850759
 20
248.16699
 11
58.850759
 21
248.12696
  0
LINE
  8
1-1
  6
CONTINUOUS
 62
    7
 10
54.800763
 20
248.16699
 11
54.800763
 21
248.12696
  0
LINE
  8
1-1
  6
CONTINUOUS
 62
    7
 10
54.88076
 20
248.24696
 11
58.770761
 21
248.24696
  0
LINE
  8
1-1
  6
CONTINUOUS
 62
    7
 10
54.975764
 20
248.26701
 11
54.975764
 21
248.25308
  0
LINE
  8
1-1
  6
CONTINUOUS
 62
    7
 10
58.675757
 20
248.26701
 11
58.675757
 21
248.25308
  0
LINE
  8
1-1
  6
CONTINUOUS
 62
    7
 10
58.595759
 20
248.34698
 11
55.055762
 21
248.34698
  0
LINE
  8
1-1
  6
CONTINUOUS
 62
    7
 10
57.775756
 20
250.53484
 11
57.775756
 21
248.36955
  0
LINE
  8
1-1
  6
CONTINUOUS
 62
    7
 10
55.875765
 20
250.53484
 11
55.875765
 21
248.36955
  0
LINE
  8
1-1
  6
CONTINUOUS
 62
    7
 10
58.575766
 20
247.49697
 11
55.075755
 21
247.49697
  0
LINE
  8
1-1
  6
CONTINUOUS
 62
    7
 10
55.075755
 20
248.00098
 11
55.075755
 21
247.34698
  0
LINE
  8
1-1
  6
CONTINUOUS
 62
    7
 10
58.575766
 20
247.34698
 11
55.075755
 21
247.34698
  0
LINE
  8
1-1
  6
CONTINUOUS
 62
    7
 10
58.575766
 20
248.00098
 11
58.575766
 21
247.34698
  0
LINE
  8
1-1
  6
CONTINUOUS
 62
    7
 10
58.175755
 20
246.94697
 11
55.475766
 21
246.94697
  0
LINE
  8
1-1
  6
CONTINUOUS
 62
    7
 10
58.175755
 20
246.82201
 11
55.475766
 21
246.82201
  0
LINE
  8
1-1
  6
CONTINUOUS
 62
    7
 10
55.475766
 20
246.77697
 11
55.475766
 21
247.35514
  0
LINE
  8
1-1
  6
CONTINUOUS
 62
    7
 10
58.175755
 20
246.77697
 11
58.175755
 21
247.35514
  0
LINE
  8
1-1
  6
CONTINUOUS
 62
    7
 10
58.095758
 20
246.69698
 11
55.555763
 21
246.69698
  0
LINE
  8
1-1
  6
CONTINUOUS
 62
    7
 10
58.075765
 20
246.61893
 11
58.075765
 21
243.16368
  0
LINE
  8
1-1
  6
CONTINUOUS
 62
    7
 10
55.575756
 20
246.61893
 11
55.575756
 21
243.16368
  0
LINE
  8
1-1
  6
CONTINUOUS
 62
    7
 10
58.095758
 20
246.47698
 11
55.555763
 21
246.47698
  0
LINE
  8
1-1
  6
CONTINUOUS
 62
    7
 10
58.095758
 20
246.257
 11
55.555763
 21
246.257
  0
LINE
  8
1-1
  6
CONTINUOUS
 62
    7
 10
58.095758
 20
246.03701
 11
55.555763
 21
246.03701
  0
LINE
  8
1-1
  6
CONTINUOUS
 62
    7
 10
58.095758
 20
245.81701
 11
55.555763
 21
245.81701
  0
LINE
  8
1-1
  6
CONTINUOUS
 62
    7
 10
58.095758
 20
245.59698
 11
55.555763
 21
245.59698
  0
LINE
  8
1-1
  6
CONTINUOUS
 62
    7
 10
58.095758
 20
245.37698
 11
55.555763
 21
245.37698
  0
LINE
  8
1-1
  6
CONTINUOUS
 62
    7
 10
58.095758
 20
245.15699
 11
55.555763
 21
245.15699
  0
LINE
  8
1-1
  6
CONTINUOUS
 62
    7
 10
58.095758
 20
244.93696
 11
55.555763
 21
244.93696
  0
LINE
  8
1-1
  6
CONTINUOUS
 62
    7
 10
58.095758
 20
244.71699
 11
55.555763
 21
244.71699
  0
LINE
  8
1-1
  6
CONTINUOUS
 62
    7
 10
58.095758
 20
244.49699
 11
55.555763
 21
244.49699
  0
LINE
  8
1-1
  6
CONTINUOUS
 62
    7
 10
58.095758
 20
244.27699
 11
55.555763
 21
244.27699
  0
LINE
  8
1-1
  6
CONTINUOUS
 62
    7
 10
58.095758
 20
244.05697
 11
55.555763
 21
244.05697
  0
LINE
  8
1-1
  6
CONTINUOUS
 62
    7
 10
58.095758
 20
243.83699
 11
55.555763
 21
243.83699
  0
LINE
  8
1-1
  6
CONTINUOUS
 62
    7
 10
58.095758
 20
243.61699
 11
55.555763
 21
243.61699
  0
LINE
  8
1-1
  6
CONTINUOUS
 62
    7
 10
58.095758
 20
243.397
 11
55.555763
 21
243.397
  0
LINE
  8
1-1
  6
CONTINUOUS
 62
    7
 10
55.563199
 20
243.27199
 11
58.060312
 21
243.27199
  0
LINE
  8
1-1
  6
CONTINUOUS
 62
    7
 10
55.825757
 20
243.13506
 11
55.825757
 21
242.79703
  0
LINE
  8
1-1
  6
CONTINUOUS
 62
    7
 10
57.825764
 20
243.13506
 11
57.825764
 21
242.79703
  0
LINE
  8
1-1
  6
CONTINUOUS
 62
    7
 10
58.175755
 20
242.79703
 11
55.475766
 21
242.79703
  0
LINE
  8
1-1
  6
CONTINUOUS
 62
    7
 10
58.175755
 20
242.79703
 11
58.175755
 21
242.69699
  0
LINE
  8
1-1
  6
CONTINUOUS
 62
    7
 10
55.475766
 20
242.79703
 11
55.475766
 21
242.69699
  0
LINE
  8
1-1
  6
CONTINUOUS
 62
    7
 10
58.175755
 20
242.69699
 11
55.475766
 21
242.69699
  0
LINE
  8
1-1
  6
CONTINUOUS
 62
    7
 10
55.60076
 20
242.24699
 11
55.60076
 21
242.69053
  0
LINE
  8
1-1
  6
CONTINUOUS
 62
    7
 10
58.050761
 20
242.24699
 11
58.050761
 21
242.69053
  0
LINE
  8
1-1
  6
CONTINUOUS
 62
    7
 10
57.950758
 20
242.14703
 11
55.700763
 21
242.14703
  0
LINE
  8
1-1
  6
CONTINUOUS
 62
    7
 10
56.048428
 20
241.85832
 11
55.926898
 21
242.14777
  0
LINE
  8
1-1
  6
CONTINUOUS
 62
    7
 10
56.140637
 20
241.797
 11
57.053628
 21
241.797
  0
LINE
  8
1-1
  6
CONTINUOUS
 62
    7
 10
57.603093
 20
241.85832
 11
57.724623
 21
242.14777
  0
LINE
  8
1-1
  6
CONTINUOUS
 62
    7
 10
57.510884
 20
241.797
 11
56.597893
 21
241.797
  0
LINE
  8
1-1
  6
CENTER1
 62
    2
 10
55.075755
 20
251.67217
 11
55.075755
 21
252.05922
  0
LINE
  8
1-1
  6
CENTER1
 62
    2
 10
55.236071
 20
251.84699
 11
54.844522
 21
251.84699
  0
LINE
  8
1-1
  6
CENTER1
 62
    2
 10
58.575766
 20
251.67217
 11
58.575766
 21
252.05922
  0
LINE
  8
1-1
  6
CENTER1
 62
    2
 10
58.41545
 20
251.84699
 11
58.806999
 21
251.84699
  0
LINE
  8
1-1
  6
CENTER1
 62
    2
 10
55.075755
 20
247.22182
 11
55.075755
 21
246.83478
  0
LINE
  8
1-1
  6
CENTER1
 62
    2
 10
55.236071
 20
247.04698
 11
54.844522
 21
247.04698
  0
LINE
  8
1-1
  6
CONTINUOUS
 62
    7
 10
54.825754
 20
247.22182
 11
54.825754
 21
246.83478
  0
LINE
  8
1-1
  6
CENTER1
 62
    2
 10
58.575766
 20
247.22182
 11
58.575766
 21
246.83478
  0
LINE
  8
1-1
  6
CENTER1
 62
    2
 10
58.41545
 20
247.04698
 11
58.806999
 21
247.04698
  0
LINE
  8
1-1
  6
CONTINUOUS
 62
    7
 10
58.825767
 20
247.22182
 11
58.825767
 21
246.83478
  0
LINE
  8
1-1
  6
CONTINUOUS
 62
    7
 10
58.325716
 20
252.09698
 11
58.825767
 21
252.09698
  0
LINE
  8
1-1
  6
CONTINUOUS
 62
    7
 10
55.3215
 20
252.09698
 11
54.825754
 21
252.09698
  0
LINE
  8
1-1
  6
CONTINUOUS
 62
    7
 10
58.803906
 20
251.447
 11
72.925767
 21
251.447
  0
LINE
  8
1-1
  6
CONTINUOUS
 62
    7
 10
54.825754
 20
250.8341
 11
54.825754
 21
252.09698
  0
LINE
  8
1-1
  6
CONTINUOUS
 62
    7
 10
54.825754
 20
247.10196
 11
54.825754
 21
248.06232
  0
LINE
  8
1-1
  6
CONTINUOUS
 62
    7
 10
54.825754
 20
248.23944
 11
54.825754
 21
250.66584
  0
LINE
  8
1-1
  6
CONTINUOUS
 62
    7
 10
58.825767
 20
247.12611
 11
58.825767
 21
248.06232
  0
LINE
  8
1-1
  6
CONTINUOUS
 62
    7
 10
58.825767
 20
248.23944
 11
58.825767
 21
250.65698
  0
LINE
  8
1-1
  6
CONTINUOUS
 62
    7
 10
58.825767
 20
250.84295
 11
58.825767
 21
252.09698
  0
LINE
  8
1-1
  6
CONTINUOUS
 62
    7
 10
55.472228
 20
246.79697
 11
54.844522
 21
246.79697
  0
LINE
  8
1-1
  6
CONTINUOUS
 62
    7
 10
58.176201
 20
246.79697
 11
58.806999
 21
246.79697
  0
LINE
  8
1-1
  6
CONTINUOUS
 62
    7
 10
67.125752
 20
250.64701
 11
64.725759
 21
250.64701
  0
LINE
  8
1-1
  6
CONTINUOUS
 62
    7
 10
65.247523
 20
251.11039
 11
64.870004
 21
250.64985
  0
LINE
  8
1-1
  6
CONTINUOUS
 62
    7
 10
65.324873
 20
251.14701
 11
66.335108
 21
251.14701
  0
LINE
  8
1-1
  6
CONTINUOUS
 62
    7
 10
66.603988
 20
251.11039
 11
66.981507
 21
250.64985
  0
LINE
  8
1-1
  6
CONTINUOUS
 62
    7
 10
66.526639
 20
251.14701
 11
65.516404
 21
251.14701
  0
LINE
  8
1-1
  6
CONTINUOUS
 62
    7
 10
64.625757
 20
250.14701
 11
67.225755
 21
250.14701
  0
LINE
  8
1-1
  6
CONTINUOUS
 62
    7
 10
67.225755
 20
250.54702
 11
67.225755
 21
250.09702
  0
LINE
  8
1-1
  6
CONTINUOUS
 62
    7
 10
64.625757
 20
250.54702
 11
64.625757
 21
250.09702
  0
LINE
  8
1-1
  6
CONTINUOUS
 62
    7
 10
64.625757
 20
250.09702
 11
67.225755
 21
250.09702
  0
LINE
  8
1-1
  6
CONTINUOUS
 62
    7
 10
67.050753
 20
250.09262
 11
67.050753
 21
249.7467
  0
LINE
  8
1-1
  6
CONTINUOUS
 62
    7
 10
64.800758
 20
250.09262
 11
64.800758
 21
249.7467
  0
LINE
  8
1-1
  6
CONTINUOUS
 62
    7
 10
64.575761
 20
249.74699
 11
67.27575
 21
249.74699
  0
LINE
  8
1-1
  6
CONTINUOUS
 62
    7
 10
64.575761
 20
249.74699
 11
64.575761
 21
247.44699
  0
LINE
  8
1-1
  6
CONTINUOUS
 62
    7
 10
67.27575
 20
249.74699
 11
67.27575
 21
247.44699
  0
LINE
  8
1-1
  6
CONTINUOUS
 62
    7
 10
64.575761
 20
249.52702
 11
67.27575
 21
249.52702
  0
LINE
  8
1-1
  6
CONTINUOUS
 62
    7
 10
64.575761
 20
249.307
 11
67.27575
 21
249.307
  0
LINE
  8
1-1
  6
CONTINUOUS
 62
    7
 10
64.575761
 20
249.08702
 11
67.27575
 21
249.08702
  0
LINE
  8
1-1
  6
CONTINUOUS
 62
    7
 10
64.575761
 20
248.867
 11
67.27575
 21
248.867
  0
LINE
  8
1-1
  6
CONTINUOUS
 62
    7
 10
64.575761
 20
248.647
 11
67.27575
 21
248.647
  0
LINE
  8
1-1
  6
CONTINUOUS
 62
    7
 10
64.575761
 20
248.427
 11
67.27575
 21
248.427
  0
LINE
  8
1-1
  6
CONTINUOUS
 62
    7
 10
64.575761
 20
248.207
 11
67.27575
 21
248.207
  0
LINE
  8
1-1
  6
CONTINUOUS
 62
    7
 10
64.575761
 20
247.987
 11
67.27575
 21
247.987
  0
LINE
  8
1-1
  6
CONTINUOUS
 62
    7
 10
64.575761
 20
247.76701
 11
67.27575
 21
247.76701
  0
LINE
  8
1-1
  6
CONTINUOUS
 62
    7
 10
63.800755
 20
247.347
 11
63.800755
 21
246.71712
  0
LINE
  8
1-1
  6
CONTINUOUS
 62
    7
 10
67.950754
 20
247.44699
 11
63.900758
 21
247.44699
  0
LINE
  8
1-1
  6
CONTINUOUS
 62
    7
 10
68.050757
 20
247.347
 11
68.050757
 21
246.71712
  0
LINE
  8
1-1
  6
CONTINUOUS
 62
    7
 10
68.145761
 20
246.69703
 11
63.705751
 21
246.69703
  0
LINE
  8
1-1
  6
CONTINUOUS
 62
    7
 10
68.225759
 20
246.57699
 11
68.225759
 21
246.61703
  0
LINE
  8
1-1
  6
CONTINUOUS
 62
    7
 10
63.625753
 20
246.57699
 11
63.625753
 21
246.61703
  0
LINE
  8
1-1
  6
CONTINUOUS
 62
    7
 10
63.705751
 20
246.49702
 11
68.145761
 21
246.49702
  0
LINE
  8
1-1
  6
CONTINUOUS
 62
    7
 10
63.775751
 20
246.477
 11
63.775751
 21
246.49474
  0
LINE
  8
1-1
  6
CONTINUOUS
 62
    7
 10
67.995763
 20
246.39701
 11
63.855749
 21
246.39701
  0
LINE
  8
1-1
  6
CENTER1
 62
    2
 10
67.995763
 20
244.94701
 11
63.855749
 21
244.94701
  0
LINE
  8
1-1
  6
CONTINUOUS
 62
    7
 10
68.145761
 20
243.19701
 11
63.705751
 21
243.19701
  0
LINE
  8
1-1
  6
CONTINUOUS
 62
    7
 10
68.225759
 20
243.31702
 11
68.225759
 21
243.27699
  0
LINE
  8
1-1
  6
CONTINUOUS
 62
    7
 10
63.625753
 20
243.31702
 11
63.625753
 21
243.27699
  0
LINE
  8
1-1
  6
CONTINUOUS
 62
    7
 10
63.705751
 20
243.39702
 11
68.145761
 21
243.39702
  0
LINE
  8
1-1
  6
CONTINUOUS
 62
    7
 10
63.775751
 20
243.41701
 11
63.775751
 21
243.39922
  0
LINE
  8
1-1
  6
CONTINUOUS
 62
    7
 10
68.075761
 20
243.41701
 11
68.075761
 21
243.39922
  0
LINE
  8
1-1
  6
CONTINUOUS
 62
    7
 10
67.995763
 20
243.49701
 11
63.855749
 21
243.49701
  0
LINE
  8
1-1
  6
CONTINUOUS
 62
    7
 10
67.075757
 20
246.38869
 11
67.075757
 21
243.50842
  0
LINE
  8
1-1
  6
CONTINUOUS
 62
    7
 10
64.775755
 20
246.38869
 11
64.775755
 21
243.50842
  0
LINE
  8
1-1
  6
CONTINUOUS
 62
    7
 10
63.775751
 20
242.297
 11
63.775751
 21
243.17997
  0
LINE
  8
1-1
  6
CONTINUOUS
 62
    7
 10
67.975758
 20
242.19701
 11
63.875754
 21
242.19701
  0
LINE
  8
1-1
  6
CONTINUOUS
 62
    7
 10
68.075761
 20
242.297
 11
68.075761
 21
243.17997
  0
LINE
  8
1-1
  6
CONTINUOUS
 62
    7
 10
67.425761
 20
240.74701
 11
64.425751
 21
240.74701
  0
LINE
  8
1-1
  6
CONTINUOUS
 62
    7
 10
64.800758
 20
240.62701
 11
64.800758
 21
240.6401
  0
LINE
  8
1-1
  6
CONTINUOUS
 62
    7
 10
66.970756
 20
240.54698
 11
64.880756
 21
240.54698
  0
LINE
  8
1-1
  6
CONTINUOUS
 62
    7
 10
67.050753
 20
240.62701
 11
67.050753
 21
240.6401
  0
LINE
  8
1-1
  6
CENTER1
 62
    2
 10
63.555629
 20
241.89702
 11
64.23182
 21
241.89702
  0
LINE
  8
1-1
  6
CENTER1
 62
    2
 10
67.443762
 20
241.89702
 11
68.289004
 21
241.89702
  0
LINE
  8
1-1
  6
CENTER1
 62
    2
 10
67.443762
 20
247.997
 11
68.119953
 21
247.997
  0
LINE
  8
1-1
  6
CENTER1
 62
    2
 10
63.72468
 20
247.997
 11
64.23182
 21
247.997
  0
LINE
  8
1-1
  6
CENTER1
 62
    2
 10
63.975757
 20
248.26589
 11
63.975757
 21
247.75877
  0
LINE
  8
1-1
  6
CENTER1
 62
    2
 10
67.875755
 20
248.20955
 11
67.875755
 21
247.81513
  0
LINE
  8
1-1
  6
CENTER1
 62
    2
 10
68.126832
 20
247.997
 11
67.619692
 21
247.997
  0
LINE
  8
1-1
  6
CENTER1
 62
    2
 10
67.875755
 20
248.26589
 11
67.875755
 21
247.75877
  0
LINE
  8
1-1
  6
CENTER1
 62
    2
 10
67.443762
 20
241.89702
 11
68.119953
 21
241.89702
  0
LINE
  8
1-1
  6
CENTER1
 62
    2
 10
63.72468
 20
241.89702
 11
64.23182
 21
241.89702
  0
LINE
  8
1-1
  6
CENTER1
 62
    2
 10
63.975757
 20
241.6281
 11
63.975757
 21
242.13525
  0
LINE
  8
1-1
  6
CENTER1
 62
    2
 10
67.875755
 20
241.68444
 11
67.875755
 21
242.07891
  0
LINE
  8
1-1
  6
CENTER1
 62
    2
 10
68.126832
 20
241.89702
 11
67.619692
 21
241.89702
  0
LINE
  8
1-1
  6
CENTER1
 62
    2
 10
67.875755
 20
241.6281
 11
67.875755
 21
242.13525
  0
LINE
  8
1-1
  6
CONTINUOUS
 62
    7
 10
63.775751
 20
241.69698
 11
63.775751
 21
242.36898
  0
LINE
  8
1-1
  6
CONTINUOUS
 62
    7
 10
68.075761
 20
241.69698
 11
68.075761
 21
242.4733
  0
LINE
  8
1-1
  6
CONTINUOUS
 62
    7
 10
63.775751
 20
248.19701
 11
64.567645
 21
248.19701
  0
LINE
  8
1-1
  6
CONTINUOUS
 62
    7
 10
68.075761
 20
248.19701
 11
67.273189
 21
248.19701
  0
LINE
  8
1-1
  6
CONTINUOUS
 62
    7
 10
63.775751
 20
248.19701
 11
63.775751
 21
246.69878
  0
LINE
  8
1-1
  6
CONTINUOUS
 62
    7
 10
68.075761
 20
248.19701
 11
68.075761
 21
246.69878
  0
LINE
  8
1-1
  6
CONTINUOUS
 62
    7
 10
68.075761
 20
246.477
 11
68.075761
 21
246.49168
  0
LINE
  8
1-1
  6
CONTINUOUS
 62
    7
 10
63.775751
 20
246.49168
 11
63.775751
 21
243.40006
  0
LINE
  8
1-1
  6
CONTINUOUS
 62
    7
 10
63.775751
 20
243.20511
 11
63.775751
 21
242.63092
  0
LINE
  8
1-1
  6
CONTINUOUS
 62
    7
 10
68.075761
 20
246.50462
 11
68.075761
 21
243.40006
  0
LINE
  8
1-1
  6
CONTINUOUS
 62
    7
 10
68.075761
 20
243.20511
 11
68.075761
 21
242.91271
  0
LINE
  8
1-1
  6
CONTINUOUS
 62
    7
 10
72.925767
 20
243.14703
 11
68.084941
 21
243.14703
  0
LINE
  8
1-1
  6
CONTINUOUS
 62
    7
 10
63.771891
 20
243.14703
 11
52.225768
 21
243.14703
  0
LINE
  8
1-1
  6
CONTINUOUS
 62
    7
 10
64.425751
 20
242.19384
 11
64.425751
 21
240.647
  0
LINE
  8
1-1
  6
CONTINUOUS
 62
    7
 10
67.425761
 20
242.21824
 11
67.425761
 21
240.647
  0
LINE
  8
1-1
  6
CONTINUOUS
 62
    7
 10
67.425761
 20
240.647
 11
64.425751
 21
240.647
  0
LINE
  8
1-1
  6
CONTINUOUS
 62
    7
 10
63.575746
 20
241.797
 11
63.575746
 21
243.12417
  0
LINE
  8
1-1
  6
CONTINUOUS
 62
    7
 10
63.675748
 20
241.69698
 11
64.415878
 21
241.69698
  0
LINE
  8
1-1
  6
CONTINUOUS
 62
    7
 10
68.175763
 20
241.69698
 11
67.414836
 21
241.69698
  0
LINE
  8
1-1
  6
CONTINUOUS
 62
    7
 10
68.275766
 20
241.797
 11
68.275766
 21
243.13995
  0
LINE
  8
1-1
  6
CENTER1
 62
    2
 10
65.385038
 20
242.69699
 11
66.45764
 21
242.69699
  0
LINE
  8
1-1
  6
CONTINUOUS
 62
    7
 10
62.825756
 20
248.69701
 11
62.825756
 21
246.94701
  0
LINE
  8
1-1
  6
CONTINUOUS
 62
    7
 10
69.025756
 20
250.04699
 11
67.051508
 21
250.04699
  0
LINE
  8
1-1
  6
CONTINUOUS
 62
    7
 10
64.781866
 20
250.04699
 11
63.525763
 21
250.04699
  0
LINE
  8
1-1
  6
DASHED1
 62
    7
 10
63.325757
 20
244.89703
 11
63.325757
 21
249.84701
  0
LINE
  8
1-1
  6
DASHED1
 62
    7
 10
69.225762
 20
244.89703
 11
69.225762
 21
249.84701
  0
LINE
  8
1-1
  6
CONTINUOUS
 62
    7
 10
63.525763
 20
244.69702
 11
63.802945
 21
244.69702
  0
LINE
  8
1-1
  6
CONTINUOUS
 62
    7
 10
69.025756
 20
244.69702
 11
68.076132
 21
244.69702
  0
LINE
  8
1-1
  6
CONTINUOUS
 62
    7
 10
62.825756
 20
248.69701
 11
63.32165
 21
248.69701
  0
LINE
  8
1-1
  6
CONTINUOUS
 62
    7
 10
63.32165
 20
248.69701
 11
63.575758
 21
248.27349
  0
LINE
  8
1-1
  6
CONTINUOUS
 62
    7
 10
63.575758
 20
246.94701
 11
63.575758
 21
248.27349
  0
LINE
  8
1-1
  6
CONTINUOUS
 62
    7
 10
62.825756
 20
246.94701
 11
63.575758
 21
246.94701
  0
LINE
  8
1-1
  6
CENTER1
 62
    2
 10
63.075756
 20
248.78797
 11
63.075756
 21
246.80484
  0
LINE
  8
1-1
  6
CENTER1
 62
    2
 10
62.816823
 20
248.39701
 11
63.309884
 21
248.39701
  0
LINE
  8
1-1
  6
CONTINUOUS
 62
    7
 10
69.725763
 20
248.69701
 11
69.725763
 21
246.94701
  0
LINE
  8
1-1
  6
CONTINUOUS
 62
    7
 10
69.725763
 20
248.69701
 11
69.229869
 21
248.69701
  0
LINE
  8
1-1
  6
CONTINUOUS
 62
    7
 10
69.229869
 20
248.69701
 11
68.975761
 21
248.27349
  0
LINE
  8
1-1
  6
CONTINUOUS
 62
    7
 10
68.975761
 20
246.94701
 11
68.975761
 21
248.27349
  0
LINE
  8
1-1
  6
CONTINUOUS
 62
    7
 10
69.725763
 20
246.94701
 11
68.975761
 21
246.94701
  0
LINE
  8
1-1
  6
CENTER1
 62
    2
 10
69.475763
 20
248.78797
 11
69.475763
 21
246.80484
  0
LINE
  8
1-1
  6
CENTER1
 62
    2
 10
69.734696
 20
248.39701
 11
69.241635
 21
248.39701
  0
LINE
  8
1-1
  6
CONTINUOUS
 62
    7
 10
69.215889
 20
249.297
 11
67.265086
 21
249.297
  0
LINE
  8
1-1
  6
CONTINUOUS
 62
    7
 10
68.995272
 20
248.347
 11
67.273189
 21
248.347
  0
LINE
  8
1-1
  6
CONTINUOUS
 62
    7
 10
68.57575
 20
249.30675
 11
68.57575
 21
248.36618
  0
LINE
  8
1-1
  6
DASHED1
 62
    7
 10
67.375753
 20
249.30675
 11
67.375753
 21
248.46699
  0
LINE
  8
1-1
  6
DASHED1
 62
    7
 10
69.064938
 20
248.46699
 11
67.375753
 21
248.46699
  0
LINE
  8
1-1
  6
CONTINUOUS
 62
    7
 10
63.527087
 20
248.347
 11
64.578322
 21
248.347
  0
LINE
  8
1-1
  6
DASHED1
 62
    7
 10
63.333552
 20
248.46699
 11
64.562486
 21
248.46699
  0
LINE
  8
1-1
  6
DASHED1
 62
    7
 10
63.324025
 20
248.69921
 11
63.324025
 21
249.89036
  0
LINE
  8
1-1
  6
DASHED1
 62
    7
 10
63.324025
 20
246.9409
 11
63.324025
 21
244.899
  0
LINE
  8
1-1
  6
CONTINUOUS
 62
    7
 10
69.222892
 20
249.8525
 11
69.222892
 21
248.69921
  0
LINE
  8
1-1
  6
CONTINUOUS
 62
    7
 10
69.222892
 20
246.9409
 11
69.222892
 21
244.93681
  0
LINE
  8
1-1
  6
CENTER1
 62
    2
 10
67.625754
 20
249.2097
 11
67.625754
 21
248.88828
  0
LINE
  8
1-1
  6
CENTER1
 62
    2
 10
68.447712
 20
249.04699
 11
67.265086
 21
249.04699
  0
LINE
  8
1-1
  6
CENTER1
 62
    2
 10
68.325749
 20
249.22861
 11
68.325749
 21
248.90718
  0
LINE
  8
1-1
  6
CONTINUOUS
 62
    7
 10
60.825774
 20
250.34699
 11
62.075765
 21
250.34699
  0
LINE
  8
1-1
  6
CONTINUOUS
 62
    7
 10
62.075765
 20
244.84702
 11
60.825774
 21
244.84702
  0
LINE
  8
1-1
  6
CENTER1
 62
    2
 10
61.525769
 20
245.89141
 11
61.525769
 21
244.40437
  0
LINE
  8
1-1
  6
CENTER1
 62
    2
 10
61.525769
 20
250.70929
 11
61.525769
 21
249.8766
  0
LINE
  8
1-1
  6
CONTINUOUS
 62
    7
 10
60.825774
 20
250.34699
 11
60.825774
 21
249.49698
  0
LINE
  8
1-1
  6
CONTINUOUS
 62
    7
 10
62.075765
 20
250.34699
 11
62.075765
 21
249.49698
  0
LINE
  8
1-1
  6
CONTINUOUS
 62
    7
 10
60.825774
 20
249.49698
 11
62.075765
 21
249.49698
  0
LINE
  8
1-1
  6
CONTINUOUS
 62
    7
 10
60.825774
 20
245.69702
 11
60.825774
 21
244.84702
  0
LINE
  8
1-1
  6
CONTINUOUS
 62
    7
 10
62.075765
 20
245.69702
 11
60.825774
 21
245.69702
  0
LINE
  8
1-1
  6
CONTINUOUS
 62
    7
 10
62.075765
 20
245.69702
 11
62.075765
 21
244.84702
  0
LINE
  8
1-1
  6
CENTER1
 62
    2
 10
60.650487
 20
249.92198
 11
62.196974
 21
249.92198
  0
LINE
  8
1-1
  6
CENTER1
 62
    2
 10
60.412562
 20
245.27202
 11
62.196974
 21
245.27202
  0
LINE
  8
1-1
  6
CONTINUOUS
 62
    7
 10
61.071692
 20
250.07198
 11
61.775769
 21
250.07198
  0
LINE
  8
1-1
  6
CONTINUOUS
 62
    7
 10
61.775769
 20
250.07198
 11
61.775769
 21
249.77199
  0
LINE
  8
1-1
  6
CONTINUOUS
 62
    7
 10
61.775769
 20
245.42202
 11
61.775769
 21
245.12202
  0
LINE
  8
1-1
  6
CONTINUOUS
 62
    7
 10
61.411117
 20
250.07198
 11
61.12577
 21
250.07198
  0
LINE
  8
1-1
  6
CONTINUOUS
 62
    7
 10
61.12577
 20
245.42202
 11
61.775769
 21
245.42202
  0
LINE
  8
1-1
  6
CONTINUOUS
 62
    7
 10
61.12577
 20
245.42202
 11
61.12577
 21
245.12202
  0
LINE
  8
1-1
  6
CONTINUOUS
 62
    7
 10
61.12577
 20
245.12202
 11
61.775769
 21
245.12202
  0
LINE
  8
1-1
  6
CONTINUOUS
 62
    7
 10
61.12577
 20
249.77199
 11
61.775769
 21
249.77199
  0
LINE
  8
1-1
  6
CONTINUOUS
 62
    7
 10
61.411117
 20
249.77199
 11
61.12577
 21
249.77199
  0
LINE
  8
1-1
  6
CONTINUOUS
 62
    7
 10
61.12577
 20
250.07198
 11
61.12577
 21
249.77199
  0
LINE
  8
1-1
  6
CENTER1
 62
    2
 10
60.525765
 20
245.6175
 11
60.525765
 21
248.97657
  0
LINE
  8
1-1
  6
CENTER1
 62
    2
 10
61.980266
 20
248.13671
 11
59.071227
 21
246.45718
  0
LINE
  8
1-1
  6
CENTER1
 62
    2
 10
60.525741
 20
248.97642
 11
60.525741
 21
245.61737
  0
LINE
  8
1-1
  6
CENTER1
 62
    2
 10
59.071227
 20
248.13661
 11
61.980266
 21
246.45708
  0
LINE
  8
1-1
  6
CENTER1
 62
    2
 10
59.07124
 20
246.45703
 11
59.640995
 21
246.78598
  0
LINE
  8
1-1
  6
CENTER1
 62
    2
 10
61.422265
 20
247.81444
 11
61.980278
 21
248.13658
  0
LINE
  8
1-1
  6
CENTER1
 62
    2
 10
61.980278
 20
246.45721
 11
61.397595
 21
246.7936
  0
LINE
  8
1-1
  6
CENTER1
 62
    2
 10
59.645127
 20
247.80543
 11
59.07124
 21
248.13673
  0
LINE
  8
1-1
  6
CONTINUOUS
 62
    7
 10
59.269427
 20
248.00235
 11
59.269427
 21
246.58189
  0
LINE
  8
1-1
  6
CONTINUOUS
 62
    7
 10
61.782104
 20
248.00235
 11
61.782104
 21
246.58189
  0
LINE
  8
1-1
  6
CONTINUOUS
 62
    7
 10
152.7265
 20
249.78837
 11
152.91252
 21
249.78837
  0
LINE
  8
1-1
  6
CONTINUOUS
 62
    7
 10
152.7265
 20
244.7884
 11
152.91252
 21
244.7884
  0
LINE
  8
1-1
  6
CONTINUOUS
 62
    7
 10
152.7265
 20
243.58841
 11
152.7265
 21
244.7884
  0
LINE
  8
1-1
  6
CONTINUOUS
 62
    7
 10
152.91252
 20
244.7884
 11
152.91252
 21
243.58841
  0
LINE
  8
1-1
  6
CONTINUOUS
 62
    7
 10
152.7265
 20
243.58841
 11
152.91252
 21
243.58841
  0
LINE
  8
1-1
  6
CONTINUOUS
 62
    7
 10
199.03555
 20
250.9884
 11
199.22151
 21
250.9884
  0
LINE
  8
1-1
  6
CONTINUOUS
 62
    7
 10
199.03555
 20
244.7884
 11
199.22151
 21
244.7884
  0
LINE
  8
1-1
  6
CONTINUOUS
 62
    7
 10
199.22151
 20
244.7884
 11
199.22151
 21
243.58841
  0
LINE
  8
1-1
  6
CONTINUOUS
 62
    7
 10
199.03555
 20
244.7884
 11
199.03555
 21
243.58841
  0
LINE
  8
1-1
  6
CONTINUOUS
 62
    7
 10
199.03555
 20
243.58841
 11
199.22151
 21
243.58841
  0
LINE
  8
1-1
  6
CENTER1
 62
    2
 10
152.87329
 20
244.18838
 11
198.98656
 21
244.18838
  0
LINE
  8
1-1
  6
CONTINUOUS
 62
    7
 10
152.7265
 20
249.79812
 11
152.7265
 21
250.9884
  0
LINE
  8
1-1
  6
CONTINUOUS
 62
    7
 10
152.91252
 20
250.9884
 11
152.91252
 21
249.79812
  0
LINE
  8
1-1
  6
CONTINUOUS
 62
    7
 10
152.7265
 20
247.88837
 11
152.91252
 21
247.88837
  0
LINE
  8
1-1
  6
CONTINUOUS
 62
    7
 10
152.7265
 20
246.68839
 11
152.7265
 21
247.88837
  0
LINE
  8
1-1
  6
CONTINUOUS
 62
    7
 10
152.7265
 20
246.68839
 11
152.91252
 21
246.68839
  0
LINE
  8
1-1
  6
CONTINUOUS
 62
    7
 10
152.91252
 20
247.88837
 11
152.91252
 21
246.68839
  0
LINE
  8
1-1
  6
CONTINUOUS
 62
    7
 10
199.22151
 20
250.9884
 11
199.22151
 21
249.78837
  0
LINE
  8
1-1
  6
CONTINUOUS
 62
    7
 10
199.03555
 20
250.9884
 11
199.03555
 21
249.78837
  0
LINE
  8
1-1
  6
CONTINUOUS
 62
    7
 10
199.03555
 20
249.78837
 11
199.22151
 21
249.78837
  0
LINE
  8
1-1
  6
CONTINUOUS
 62
    7
 10
199.03555
 20
247.88837
 11
199.22151
 21
247.88837
  0
LINE
  8
1-1
  6
CONTINUOUS
 62
    7
 10
199.22151
 20
247.88837
 11
199.22151
 21
246.68839
  0
LINE
  8
1-1
  6
CONTINUOUS
 62
    7
 10
199.03555
 20
247.88837
 11
199.03555
 21
246.68839
  0
LINE
  8
1-1
  6
CONTINUOUS
 62
    7
 10
199.03555
 20
246.68839
 11
199.22151
 21
246.68839
  0
LINE
  8
1-1
  6
CONTINUOUS
 62
    7
 10
152.7265
 20
250.9884
 11
152.91252
 21
250.9884
  0
LINE
  8
1-1
  6
CONTINUOUS
 62
    7
 10
154.21031
 20
244.62949
 11
157.3186
 21
246.85789
  0
LINE
  8
1-1
  6
CONTINUOUS
 62
    7
 10
154.24104
 20
249.94346
 11
157.29468
 21
247.67602
  0
LINE
  8
1-1
  6
CONTINUOUS
 62
    7
 10
158.36299
 20
247.76322
 11
161.16697
 21
250.02477
  0
LINE
  8
1-1
  6
CONTINUOUS
 62
    7
 10
158.22314
 20
246.89193
 11
161.45855
 21
244.57241
  0
LINE
  8
1-1
  6
CONTINUOUS
 62
    7
 10
162.4748
 20
244.59327
 11
166.13496
 21
246.93821
  0
LINE
  8
1-1
  6
CONTINUOUS
 62
    7
 10
163.08972
 20
250.02759
 11
166.05852
 21
247.68641
  0
LINE
  8
1-1
  6
CONTINUOUS
 62
    7
 10
167.01026
 20
247.69354
 11
170.40078
 21
250.02081
  0
LINE
  8
1-1
  6
CENTER1
 62
    2
 10
152.87329
 20
250.38841
 11
199.08469
 21
250.38841
  0
LINE
  8
1-1
  6
CONTINUOUS
 62
    7
 10
167.01571
 20
246.89372
 11
170.60447
 21
244.57815
  0
LINE
  8
1-1
  6
CONTINUOUS
 62
    7
 10
171.37023
 20
244.58817
 11
175.23912
 21
246.90844
  0
LINE
  8
1-1
  6
CONTINUOUS
 62
    7
 10
171.79114
 20
250.00309
 11
175.40539
 21
247.65489
  0
LINE
  8
1-1
  6
CONTINUOUS
 62
    7
 10
175.97401
 20
250.01354
 11
175.97401
 21
247.68938
  0
LINE
  8
1-1
  6
CONTINUOUS
 62
    7
 10
175.97401
 20
246.93553
 11
175.97401
 21
244.65617
  0
LINE
  8
1-1
  6
CONTINUOUS
 62
    7
 10
176.73439
 20
246.92806
 11
179.92186
 21
244.59094
  0
LINE
  8
1-1
  6
CONTINUOUS
 62
    7
 10
176.18389
 20
247.66298
 11
179.90791
 21
249.99909
  0
LINE
  8
1-1
  6
CONTINUOUS
 62
    7
 10
180.84284
 20
244.54576
 11
184.27364
 21
246.92341
  0
LINE
  8
1-1
  6
CONTINUOUS
 62
    7
 10
181.01609
 20
250.00824
 11
184.37761
 21
247.65432
  0
LINE
  8
1-1
  6
CONTINUOUS
 62
    7
 10
185.0699
 20
247.65444
 11
188.4481
 21
250.04885
  0
LINE
  8
1-1
  6
CONTINUOUS
 62
    7
 10
185.26849
 20
246.98623
 11
188.62497
 21
244.57991
  0
LINE
  8
1-1
  6
CONTINUOUS
 62
    7
 10
189.7333
 20
250.01891
 11
193.24772
 21
247.66726
  0
LINE
  8
1-1
  6
CONTINUOUS
 62
    7
 10
189.28903
 20
244.56882
 11
192.87192
 21
246.94617
  0
LINE
  8
1-1
  6
CONTINUOUS
 62
    7
 10
194.30158
 20
246.92628
 11
197.75673
 21
244.6337
  0
LINE
  8
1-1
  6
CONTINUOUS
 62
    7
 10
198.2916
 20
250.01354
 11
198.2916
 21
247.66466
  0
LINE
  8
1-1
  6
CONTINUOUS
 62
    7
 10
153.65644
 20
249.91436
 11
153.65644
 21
247.66447
  0
LINE
  8
1-1
  6
CONTINUOUS
 62
    7
 10
153.65644
 20
246.90911
 11
153.65644
 21
244.65617
  0
LINE
  8
1-1
  6
CONTINUOUS
 62
    7
 10
152.80544
 20
250.76338
 11
199.01342
 21
250.76338
  0
LINE
  8
1-1
  6
CONTINUOUS
 62
    7
 10
152.95094
 20
243.81339
 11
199.01342
 21
243.81339
  0
LINE
  8
1-1
  6
CONTINUOUS
 62
    7
 10
152.95094
 20
247.66338
 11
199.01342
 21
247.66338
  0
LINE
  8
1-1
  6
CONTINUOUS
 62
    7
 10
152.95094
 20
246.91336
 11
198.9873
 21
246.91336
  0
LINE
  8
1-1
  6
CONTINUOUS
 62
    7
 10
152.80544
 20
250.01339
 11
199.01342
 21
250.01339
  0
LINE
  8
1-1
  6
CONTINUOUS
 62
    7
 10
199.2185
 20
250.9884
 11
199.40447
 21
250.9884
  0
LINE
  8
1-1
  6
CONTINUOUS
 62
    7
 10
199.2185
 20
244.7884
 11
199.40447
 21
244.7884
  0
LINE
  8
1-1
  6
CONTINUOUS
 62
    7
 10
199.40447
 20
244.7884
 11
199.40447
 21
243.58841
  0
LINE
  8
1-1
  6
CONTINUOUS
 62
    7
 10
199.2185
 20
244.7884
 11
199.2185
 21
243.58841
  0
LINE
  8
1-1
  6
CONTINUOUS
 62
    7
 10
199.2185
 20
243.58841
 11
199.40447
 21
243.58841
  0
LINE
  8
1-1
  6
CONTINUOUS
 62
    7
 10
199.40447
 20
250.9884
 11
199.40447
 21
249.78837
  0
LINE
  8
1-1
  6
CONTINUOUS
 62
    7
 10
199.2185
 20
250.9884
 11
199.2185
 21
249.78837
  0
LINE
  8
1-1
  6
CONTINUOUS
 62
    7
 10
199.2185
 20
249.78837
 11
199.40447
 21
249.78837
  0
LINE
  8
1-1
  6
CONTINUOUS
 62
    7
 10
199.2185
 20
247.88837
 11
199.40447
 21
247.88837
  0
LINE
  8
1-1
  6
CONTINUOUS
 62
    7
 10
199.40447
 20
247.88837
 11
199.40447
 21
246.68839
  0
LINE
  8
1-1
  6
CONTINUOUS
 62
    7
 10
199.2185
 20
247.88837
 11
199.2185
 21
246.68839
  0
LINE
  8
1-1
  6
CONTINUOUS
 62
    7
 10
199.2185
 20
246.68839
 11
199.40447
 21
246.68839
  0
LINE
  8
1-1
  6
CONTINUOUS
 62
    7
 10
152.95094
 20
244.56338
 11
199.03956
 21
244.56338
  0
LINE
  8
1-1
  6
CONTINUOUS
 62
    7
 10
244.02406
 20
250.9884
 11
244.02406
 21
243.58841
  0
LINE
  8
1-1
  6
CONTINUOUS
 62
    7
 10
245.88386
 20
250.9884
 11
245.88386
 21
243.58841
  0
LINE
  8
1-1
  6
CONTINUOUS
 62
    7
 10
200.15141
 20
249.99082
 11
200.15141
 21
247.68127
  0
LINE
  8
1-1
  6
CONTINUOUS
 62
    7
 10
200.15141
 20
246.93892
 11
200.15141
 21
244.58817
  0
LINE
  8
1-1
  6
CONTINUOUS
 62
    7
 10
193.73859
 20
247.67916
 11
197.52284
 21
250.00463
  0
LINE
  8
1-1
  6
CONTINUOUS
 62
    7
 10
198.2916
 20
246.89768
 11
198.2916
 21
244.61712
  0
LINE
  8
1-1
  6
CONTINUOUS
 62
    7
 10
199.41859
 20
250.7616
 11
239.72415
 21
250.02126
  0
LINE
  8
1-1
  6
CONTINUOUS
 62
    7
 10
239.72296
 20
244.56209
 11
199.31546
 21
243.80235
  0
LINE
  8
1-1
  6
CONTINUOUS
 62
    7
 10
239.67214
 20
250.01339
 11
244.00931
 21
250.01339
  0
LINE
  8
1-1
  6
CONTINUOUS
 62
    7
 10
239.67214
 20
244.56338
 11
244.00931
 21
244.56338
  0
LINE
  8
1-1
  6
CONTINUOUS
 62
    7
 10
239.67214
 20
250.01339
 11
239.67214
 21
244.56338
  0
LINE
  8
1-1
  6
CONTINUOUS
 62
    7
 10
219.91179
 20
249.4563
 11
219.91179
 21
245.14397
  0
LINE
  8
1-1
  6
CONTINUOUS
 62
    7
 10
201.12003
 20
250.05496
 11
204.3993
 21
247.70398
  0
LINE
  8
1-1
  6
CONTINUOUS
 62
    7
 10
205.57256
 20
247.67543
 11
209.00143
 21
249.87591
  0
LINE
  8
1-1
  6
CONTINUOUS
 62
    7
 10
211.19869
 20
249.73621
 11
214.41006
 21
247.66412
  0
LINE
  8
1-1
  6
CONTINUOUS
 62
    7
 10
215.28694
 20
247.67676
 11
218.96543
 21
249.77827
  0
LINE
  8
1-1
  6
CONTINUOUS
 62
    7
 10
225.1681
 20
247.66412
 11
228.54002
 21
249.47719
  0
LINE
  8
1-1
  6
CONTINUOUS
 62
    7
 10
235.26979
 20
247.6949
 11
238.26579
 21
249.27943
  0
LINE
  8
1-1
  6
CONTINUOUS
 62
    7
 10
231.02881
 20
249.47719
 11
234.32486
 21
247.58675
  0
LINE
  8
1-1
  6
CONTINUOUS
 62
    7
 10
199.40675
 20
250.01171
 11
239.61864
 21
249.27305
  0
LINE
  8
1-1
  6
CONTINUOUS
 62
    7
 10
239.62092
 20
245.3103
 11
199.30328
 21
244.55224
  0
LINE
  8
1-1
  6
CONTINUOUS
 62
    7
 10
221.00003
 20
249.66282
 11
224.35799
 21
247.65009
  0
LINE
  8
1-1
  6
CONTINUOUS
 62
    7
 10
201.12003
 20
244.52181
 11
204.3993
 21
246.87278
  0
LINE
  8
1-1
  6
CONTINUOUS
 62
    7
 10
205.57256
 20
246.90134
 11
209.00143
 21
244.70085
  0
LINE
  8
1-1
  6
CONTINUOUS
 62
    7
 10
211.19869
 20
244.84056
 11
214.41001
 21
246.91265
  0
LINE
  8
1-1
  6
CONTINUOUS
 62
    7
 10
215.28694
 20
246.9
 11
218.96543
 21
244.79849
  0
LINE
  8
1-1
  6
CONTINUOUS
 62
    7
 10
225.16805
 20
246.91265
 11
228.53997
 21
245.09958
  0
LINE
  8
1-1
  6
CONTINUOUS
 62
    7
 10
235.26974
 20
246.88184
 11
238.26579
 21
245.29733
  0
LINE
  8
1-1
  6
CONTINUOUS
 62
    7
 10
231.02881
 20
245.09958
 11
234.32486
 21
246.98999
  0
LINE
  8
1-1
  6
CONTINUOUS
 62
    7
 10
221.00003
 20
244.91395
 11
224.35799
 21
246.92667
  0
LINE
  8
1-1
  6
CONTINUOUS
 62
    7
 10
199.40547
 20
247.66338
 11
239.65863
 21
247.66338
  0
LINE
  8
1-1
  6
CONTINUOUS
 62
    7
 10
199.40547
 20
246.91336
 11
239.65863
 21
246.91336
  0
LINE
  8
1-1
  6
CONTINUOUS
 62
    7
 10
106.23153
 20
249.78837
 11
106.41749
 21
249.78837
  0
LINE
  8
1-1
  6
CONTINUOUS
 62
    7
 10
106.23153
 20
244.7884
 11
106.41749
 21
244.7884
  0
LINE
  8
1-1
  6
CONTINUOUS
 62
    7
 10
106.23153
 20
243.58841
 11
106.23153
 21
244.7884
  0
LINE
  8
1-1
  6
CONTINUOUS
 62
    7
 10
106.41749
 20
244.7884
 11
106.41749
 21
243.58841
  0
LINE
  8
1-1
  6
CONTINUOUS
 62
    7
 10
106.23153
 20
243.58841
 11
106.41749
 21
243.58841
  0
LINE
  8
1-1
  6
CONTINUOUS
 62
    7
 10
152.54052
 20
250.9884
 11
152.7265
 21
250.9884
  0
LINE
  8
1-1
  6
CONTINUOUS
 62
    7
 10
152.54052
 20
244.7884
 11
152.7265
 21
244.7884
  0
LINE
  8
1-1
  6
CONTINUOUS
 62
    7
 10
152.7265
 20
244.7884
 11
152.7265
 21
243.58841
  0
LINE
  8
1-1
  6
CONTINUOUS
 62
    7
 10
152.54052
 20
244.7884
 11
152.54052
 21
243.58841
  0
LINE
  8
1-1
  6
CONTINUOUS
 62
    7
 10
152.54052
 20
243.58841
 11
152.7265
 21
243.58841
  0
LINE
  8
1-1
  6
CENTER1
 62
    2
 10
106.3783
 20
244.18838
 11
152.49158
 21
244.18838
  0
LINE
  8
1-1
  6
CONTINUOUS
 62
    7
 10
106.23153
 20
249.79812
 11
106.23153
 21
250.9884
  0
LINE
  8
1-1
  6
CONTINUOUS
 62
    7
 10
106.41749
 20
250.9884
 11
106.41749
 21
249.79812
  0
LINE
  8
1-1
  6
CONTINUOUS
 62
    7
 10
152.7265
 20
250.9884
 11
152.7265
 21
249.78837
  0
LINE
  8
1-1
  6
CONTINUOUS
 62
    7
 10
152.54052
 20
250.9884
 11
152.54052
 21
249.78837
  0
LINE
  8
1-1
  6
CONTINUOUS
 62
    7
 10
152.54052
 20
249.78837
 11
152.7265
 21
249.78837
  0
LINE
  8
1-1
  6
CONTINUOUS
 62
    7
 10
152.54052
 20
247.88837
 11
152.7265
 21
247.88837
  0
LINE
  8
1-1
  6
CONTINUOUS
 62
    7
 10
152.7265
 20
247.88837
 11
152.7265
 21
246.68839
  0
LINE
  8
1-1
  6
CONTINUOUS
 62
    7
 10
152.54052
 20
247.88837
 11
152.54052
 21
246.68839
  0
LINE
  8
1-1
  6
CONTINUOUS
 62
    7
 10
152.54052
 20
246.68839
 11
152.7265
 21
246.68839
  0
LINE
  8
1-1
  6
CONTINUOUS
 62
    7
 10
106.23153
 20
250.9884
 11
106.41749
 21
250.9884
  0
LINE
  8
1-1
  6
CENTER1
 62
    2
 10
106.3783
 20
250.38841
 11
152.58971
 21
250.38841
  0
LINE
  8
1-1
  6
CONTINUOUS
 62
    7
 10
151.79663
 20
250.01354
 11
151.79663
 21
247.66466
  0
LINE
  8
1-1
  6
CONTINUOUS
 62
    7
 10
107.16139
 20
246.90911
 11
107.16139
 21
244.65617
  0
LINE
  8
1-1
  6
CONTINUOUS
 62
    7
 10
152.72349
 20
244.7884
 11
152.72349
 21
243.58841
  0
LINE
  8
1-1
  6
CONTINUOUS
 62
    7
 10
152.72349
 20
250.9884
 11
152.72349
 21
249.78837
  0
LINE
  8
1-1
  6
CONTINUOUS
 62
    7
 10
152.72349
 20
247.88837
 11
152.72349
 21
246.68839
  0
LINE
  8
1-1
  6
CONTINUOUS
 62
    7
 10
151.79663
 20
246.89768
 11
151.79663
 21
244.61712
  0
LINE
  8
1-1
  6
CONTINUOUS
 62
    7
 10
71.825216
 20
251.23836
 11
72.75512
 21
251.23836
  0
LINE
  8
1-1
  6
CONTINUOUS
 62
    7
 10
71.825216
 20
243.3384
 11
72.75512
 21
243.3384
  0
LINE
  8
1-1
  6
CONTINUOUS
 62
    7
 10
72.752757
 20
251.23826
 11
106.22643
 21
250.76189
  0
LINE
  8
1-1
  6
CONTINUOUS
 62
    7
 10
72.753598
 20
243.34246
 11
106.23092
 21
243.80797
  0
LINE
  8
1-1
  6
CONTINUOUS
 62
    7
 10
106.17714
 20
250.76338
 11
106.21135
 21
250.76338
  0
LINE
  8
1-1
  6
CONTINUOUS
 62
    7
 10
106.40751
 20
250.76338
 11
152.51841
 21
250.76338
  0
LINE
  8
1-1
  6
CONTINUOUS
 62
    7
 10
106.13255
 20
243.81339
 11
106.21135
 21
243.81339
  0
LINE
  8
1-1
  6
CONTINUOUS
 62
    7
 10
106.40751
 20
243.81339
 11
152.51841
 21
243.81339
  0
LINE
  8
1-1
  6
CONTINUOUS
 62
    7
 10
117.41244
 20
250.01339
 11
152.51841
 21
250.01339
  0
LINE
  8
1-1
  6
CONTINUOUS
 62
    7
 10
117.52615
 20
244.56338
 11
152.54459
 21
244.56338
  0
LINE
  8
1-1
  6
CONTINUOUS
 62
    7
 10
129.47903
 20
249.97894
 11
129.47903
 21
249.16848
  0
LINE
  8
1-1
  6
CONTINUOUS
 62
    7
 10
107.16139
 20
249.91436
 11
107.16139
 21
246.10124
  0
LINE
  8
1-1
  6
CONTINUOUS
 62
    7
 10
125.00799
 20
248.7509
 11
128.53548
 21
246.09557
  0
LINE
  8
1-1
  6
CONTINUOUS
 62
    7
 10
119.0639
 20
245.43387
 11
123.04964
 21
248.87051
  0
LINE
  8
1-1
  6
CONTINUOUS
 62
    7
 10
113.56663
 20
249.51539
 11
117.71109
 21
245.38265
  0
LINE
  8
1-1
  6
CONTINUOUS
 62
    7
 10
107.81668
 20
244.66871
 11
112.17294
 21
249.60432
  0
LINE
  8
1-1
  6
CONTINUOUS
 62
    7
 10
146.92014
 20
247.29249
 11
106.46907
 21
244.57253
  0
LINE
  8
1-1
  6
CONTINUOUS
 62
    7
 10
146.7195
 20
247.3012
 11
106.46818
 21
250.00987
  0
LINE
  8
1-1
  6
CONTINUOUS
 62
    7
 10
129.47903
 20
248.42841
 11
129.47903
 21
246.29491
  0
LINE
  8
1-1
  6
CONTINUOUS
 62
    7
 10
129.47903
 20
245.39784
 11
129.47903
 21
244.58735
  0
LINE
  8
1-1
  6
CONTINUOUS
 62
    7
 10
130.15835
 20
246.18564
 11
132.13655
 21
248.2485
  0
LINE
  8
1-1
  6
CONTINUOUS
 62
    7
 10
133.30793
 20
248.12193
 11
134.7458
 21
246.51845
  0
LINE
  8
1-1
  6
CONTINUOUS
 62
    7
 10
136.34248
 20
246.53698
 11
138.25073
 21
247.77782
  0
LINE
  8
1-1
  6
CONTINUOUS
 62
    7
 10
152.53271
 20
247.66147
 11
106.42433
 21
250.76427
  0
LINE
  8
1-1
  6
CONTINUOUS
 62
    7
 10
140.80847
 20
247.67676
 11
141.86405
 21
246.90886
  0
LINE
  8
1-1
  6
CONTINUOUS
 62
    7
 10
152.53944
 20
246.91886
 11
106.42121
 21
243.81789
  0
LINE
  8
1-1
  6
CONTINUOUS
 62
    7
 10
141.84034
 20
250.04011
 11
145.11175
 21
248.1036
  0
LINE
  8
1-1
  6
CONTINUOUS
 62
    7
 10
136.1662
 20
248.75778
 11
138.99261
 21
250.05238
  0
LINE
  8
1-1
  6
CONTINUOUS
 62
    7
 10
131.07815
 20
250.01542
 11
133.29471
 21
249.00015
  0
LINE
  8
1-1
  6
CONTINUOUS
 62
    7
 10
147.15826
 20
248.01303
 11
150.66339
 21
250.05332
  0
LINE
  8
1-1
  6
CONTINUOUS
 62
    7
 10
141.84034
 20
244.53668
 11
145.11175
 21
246.47319
  0
LINE
  8
1-1
  6
CONTINUOUS
 62
    7
 10
136.1662
 20
245.81899
 11
138.99261
 21
244.52438
  0
LINE
  8
1-1
  6
CONTINUOUS
 62
    7
 10
131.07815
 20
244.56137
 11
133.29471
 21
245.57659
  0
LINE
  8
1-1
  6
CONTINUOUS
 62
    7
 10
147.15826
 20
246.56375
 11
150.66339
 21
244.52344
  0
LINE
  8
1-1
  6
CONTINUOUS
 62
    7
 10
105.48762
 20
246.90911
 11
105.48762
 21
244.65617
  0
LINE
  8
1-1
  6
CONTINUOUS
 62
    7
 10
105.48762
 20
249.91436
 11
105.48762
 21
246.10124
  0
LINE
  8
1-1
  6
CONTINUOUS
 62
    7
 10
105.0563
 20
244.56169
 11
102.0021
 21
250.03573
  0
LINE
  8
1-1
  6
CONTINUOUS
 62
    7
 10
101.1517
 20
250.0845
 11
97.994643
 21
244.46836
  0
LINE
  8
1-1
  6
CONTINUOUS
 62
    7
 10
97.194726
 20
244.44188
 11
94.122959
 21
250.16759
  0
LINE
  8
1-1
  6
CONTINUOUS
 62
    7
 10
93.260383
 20
250.21569
 11
90.200196
 21
244.44881
  0
LINE
  8
1-1
  6
CONTINUOUS
 62
    7
 10
73.993766
 20
247.66276
 11
80.17511
 21
250.39989
  0
LINE
  8
1-1
  6
CONTINUOUS
 62
    7
 10
81.841444
 20
250.32576
 11
81.841444
 21
244.28466
  0
LINE
  8
1-1
  6
CONTINUOUS
 62
    7
 10
73.952691
 20
247.02236
 11
80.258955
 21
244.2299
  0
LINE
  8
1-1
  6
CONTINUOUS
 62
    7
 10
85.454845
 20
250.31997
 11
82.097482
 21
244.19316
  0
LINE
  8
1-1
  6
CONTINUOUS
 62
    7
 10
89.201084
 20
244.37265
 11
86.287282
 21
250.32623
  0
LINE
  8
1-1
  6
CONTINUOUS
 62
    7
 10
89.723503
 20
250.24356
 11
89.723503
 21
244.36839
  0
LINE
  8
1-1
  6
CONTINUOUS
 62
    7
 10
71.825216
 20
250.85562
 11
71.825216
 21
251.23836
  0
LINE
  8
1-1
  6
CONTINUOUS
 62
    7
 10
71.825216
 20
250.85562
 11
72.75512
 21
250.85562
  0
LINE
  8
1-1
  6
CONTINUOUS
 62
    7
 10
72.75512
 20
250.85562
 11
72.75512
 21
251.23836
  0
LINE
  8
1-1
  6
CONTINUOUS
 62
    7
 10
72.746793
 20
250.86072
 11
74.516248
 21
250.46308
  0
LINE
  8
1-1
  6
CONTINUOUS
 62
    7
 10
74.516248
 20
250.46308
 11
106.21716
 21
250.01195
  0
LINE
  8
1-1
  6
CONTINUOUS
 62
    7
 10
71.825216
 20
243.3384
 11
71.825216
 21
243.75563
  0
LINE
  8
1-1
  6
CONTINUOUS
 62
    7
 10
71.825216
 20
243.75563
 11
72.75512
 21
243.75563
  0
LINE
  8
1-1
  6
CONTINUOUS
 62
    7
 10
72.75512
 20
243.3384
 11
72.75512
 21
243.75563
  0
LINE
  8
1-1
  6
CONTINUOUS
 62
    7
 10
74.610411
 20
244.11833
 11
106.22191
 21
244.55788
  0
LINE
  8
1-1
  6
CONTINUOUS
 62
    7
 10
72.752225
 20
243.75479
 11
74.610411
 21
244.11833
  0
LINE
  8
1-1
  6
CONTINUOUS
 62
    7
 10
73.494433
 20
250.68212
 11
73.494433
 21
243.89188
  0
LINE
  8
1-1
  6
CONTINUOUS
 62
    7
 10
73.959397
 20
250.573
 11
73.959397
 21
244.00006
  0
LINE
  8
1-1
  6
CONTINUOUS
 62
    7
 10
72.925767
 20
243.33825
 11
72.925767
 21
243.14703
  0
LINE
  8
1-1
  6
CONTINUOUS
 62
    7
 10
72.925767
 20
251.43755
 11
72.925767
 21
251.23619
  0
LINE
  8
1-1
  6
CONTINUOUS
 62
    7
 10
72.925767
 20
251.447
 11
72.925767
 21
251.23619
  0
LINE
  8
1-1
  6
CONTINUOUS
 62
    7
 10
72.925767
 20
250.81984
 11
72.925767
 21
243.78968
  0
LINE
  8
1-1
  6
CENTER1
 62
    2
 10
74.751093
 20
247.28838
 11
248.8329
 21
247.28838
  0
LINE
  8
1-1
  6
CENTER1
 62
    2
 10
72.325762
 20
251.50164
 11
72.325762
 21
250.50535
  0
LINE
  8
1-1
  6
CONTINUOUS
 62
    7
 10
26.42575
 20
242.517
 11
26.42575
 21
252.07704
  0
LINE
  8
1-1
  6
CONTINUOUS
 62
    7
 10
25.833481
 20
251.57701
 11
25.833481
 21
243.01703
  0
LINE
  8
1-1
  6
CONTINUOUS
 62
    7
 10
25.925748
 20
242.517
 11
25.925748
 21
252.07704
  0
LINE
  8
1-1
  6
CONTINUOUS
 62
    7
 10
25.833481
 20
251.57701
 11
25.91705
 21
251.57701
  0
LINE
  8
1-1
  6
CONTINUOUS
 62
    7
 10
25.833481
 20
243.01703
 11
25.943972
 21
243.01703
  0
LINE
  8
1-1
  6
CONTINUOUS
 62
    7
 10
26.704614
 20
251.60425
 11
26.704614
 21
243.04885
  0
LINE
  8
1-1
  6
CONTINUOUS
 62
    7
 10
27.575742
 20
251.53992
 11
27.575742
 21
243.04885
  0
LINE
  8
1-1
  6
CONTINUOUS
 62
    7
 10
28.711995
 20
251.53992
 11
28.711995
 21
243.04885
  0
LINE
  8
1-1
  6
CONTINUOUS
 62
    7
 10
30.037632
 20
251.53992
 11
30.037632
 21
243.11316
  0
LINE
  8
1-1
  6
CONTINUOUS
 62
    7
 10
31.363263
 20
251.60425
 11
31.363263
 21
243.04885
  0
LINE
  8
1-1
  6
CONTINUOUS
 62
    7
 10
33.976648
 20
251.53992
 11
33.976648
 21
243.11316
  0
LINE
  8
1-1
  6
CONTINUOUS
 62
    7
 10
32.651014
 20
251.47561
 11
32.651014
 21
243.04885
  0
LINE
  8
1-1
  6
CONTINUOUS
 62
    7
 10
35.302273
 20
251.60425
 11
35.302273
 21
243.11316
  0
LINE
  8
1-1
  6
CONTINUOUS
 62
    7
 10
36.665787
 20
251.53992
 11
36.665787
 21
243.11316
  0
LINE
  8
1-1
  6
CONTINUOUS
 62
    7
 10
52.225768
 20
251.447
 11
54.820372
 21
251.447
  0
LINE
  8
1-1
  6
CONTINUOUS
 62
    7
 10
52.225768
 20
251.327
 11
54.175767
 21
251.327
  0
LINE
  8
1-1
  6
CONTINUOUS
 62
    7
 10
52.225768
 20
251.07701
 11
53.40587
 21
251.07701
  0
LINE
  8
1-1
  6
CONTINUOUS
 62
    7
 10
25.925748
 20
252.07704
 11
52.025774
 21
252.07704
  0
LINE
  8
1-1
  6
CONTINUOUS
 62
    7
 10
52.225768
 20
251.327
 11
52.225768
 21
251.447
  0
LINE
  8
1-1
  6
CONTINUOUS
 62
    7
 10
52.025774
 20
252.07704
 11
52.025774
 21
242.517
  0
LINE
  8
1-1
  6
CONTINUOUS
 62
    7
 10
25.925748
 20
242.517
 11
52.025774
 21
242.517
  0
LINE
  8
1-1
  6
CONTINUOUS
 62
    7
 10
25.912164
 20
243.01703
 11
52.02377
 21
243.01703
  0
LINE
  8
1-1
  6
CONTINUOUS
 62
    7
 10
25.912164
 20
251.57701
 11
52.017733
 21
251.57701
  0
LINE
  8
1-1
  6
CONTINUOUS
 62
    7
 10
51.525773
 20
251.57686
 11
51.525773
 21
243.03846
  0
LINE
  8
1-1
  6
CONTINUOUS
 62
    7
 10
52.017733
 20
251.11702
 11
53.415211
 21
251.11702
  0
LINE
  8
1-1
  6
CONTINUOUS
 62
    7
 10
52.017733
 20
251.28701
 11
52.671518
 21
251.28701
  0
LINE
  8
1-1
  6
CONTINUOUS
 62
    7
 10
52.017733
 20
243.47702
 11
53.415211
 21
243.47702
  0
LINE
  8
1-1
  6
CONTINUOUS
 62
    7
 10
52.017733
 20
243.30703
 11
52.671518
 21
243.30703
  0
LINE
  8
1-1
  6
CONTINUOUS
 62
    7
 10
36.738534
 20
245.29523
 11
39.324528
 21
251.55605
  0
LINE
  8
1-1
  6
CONTINUOUS
 62
    7
 10
36.720718
 20
246.5618
 11
38.788288
 21
251.56751
  0
LINE
  8
1-1
  6
CONTINUOUS
 62
    7
 10
39.281065
 20
251.5058
 11
42.831369
 21
243.05855
  0
LINE
  8
1-1
  6
CONTINUOUS
 62
    7
 10
39.812479
 20
251.53188
 11
43.364243
 21
243.08114
  0
LINE
  8
1-1
  6
CONTINUOUS
 62
    7
 10
43.408534
 20
243.26536
 11
46.838397
 21
251.56919
  0
LINE
  8
1-1
  6
CONTINUOUS
 62
    7
 10
43.870665
 20
243.07446
 11
47.376516
 21
251.56231
  0
LINE
  8
1-1
  6
CONTINUOUS
 62
    7
 10
47.852405
 20
251.56417
 11
51.460597
 21
243.10363
  0
LINE
  8
1-1
  6
CONTINUOUS
 62
    7
 10
47.304586
 20
251.57414
 11
50.93986
 21
243.05006
  0
LINE
  8
1-1
  6
CONTINUOUS
 62
    7
 10
244.02406
 20
250.9884
 11
245.92573
 21
250.9884
  0
LINE
  8
1-1
  6
CONTINUOUS
 62
    7
 10
245.92573
 20
243.58841
 11
245.92573
 21
250.9884
  0
LINE
  8
1-1
  6
CONTINUOUS
 62
    7
 10
244.02406
 20
243.58841
 11
245.92573
 21
243.58841
  0
LINE
  8
1-1
  6
CENTER1
 62
    2
 10
65.925756
 20
242.27241
 11
65.925756
 21
255.12181
  0
LINE
  8
1-1
  6
CENTER1
 62
    2
 10
62.241971
 20
250.98058
 11
70.599746
 21
242.62281
  0
LINE
  8
1-1
  6
CONTINUOUS
 62
    7
 10
44.330705
 20
270.81536
 11
63.404381
 21
251.74171
  0
LINE
  8
1-1
  6
CONTINUOUS
 62
    7
 10
44.330705
 20
270.81536
 11
42.407368
 21
268.89203
  0
LINE
  8
1-1
  6
CONTINUOUS
 62
    7
 10
68.432086
 20
251.72669
 11
87.520794
 21
270.81541
  0
LINE
  8
1-1
  6
CONTINUOUS
 62
    7
 10
87.520794
 20
270.81541
 11
89.444131
 21
268.89206
  0
LINE
  8
1-1
  6
CONTINUOUS
 62
    7
 10
68.419269
 20
242.88019
 11
87.520819
 21
223.77868
  0
LINE
  8
1-1
  6
CONTINUOUS
 62
    7
 10
89.444144
 20
225.702
 11
87.520819
 21
223.77868
  0
LINE
  8
1-1
  6
CONTINUOUS
 62
    7
 10
44.330594
 20
223.77856
 11
63.417211
 21
242.86515
  0
LINE
  8
1-1
  6
CONTINUOUS
 62
    7
 10
42.407269
 20
225.70186
 11
44.330594
 21
223.77856
  0
LINE
  8
1-1
  6
CONTINUOUS
 62
    7
 10
41.601172
 20
224.74021
 11
43.368932
 21
226.50797
  0
LINE
  8
1-1
  6
CONTINUOUS
 62
    7
 10
43.368932
 20
226.50797
 11
45.136691
 21
224.74021
  0
LINE
  8
1-1
  6
CONTINUOUS
 62
    7
 10
43.368932
 20
222.97245
 11
45.136691
 21
224.74021
  0
LINE
  8
1-1
  6
CONTINUOUS
 62
    7
 10
41.601172
 20
224.74021
 11
43.368932
 21
222.97245
  0
LINE
  8
1-1
  6
CONTINUOUS
 62
    7
 10
90.25013
 20
224.74023
 11
88.48237
 21
226.50799
  0
LINE
  8
1-1
  6
CONTINUOUS
 62
    7
 10
88.482358
 20
222.97247
 11
90.25013
 21
224.74023
  0
LINE
  8
1-1
  6
CONTINUOUS
 62
    7
 10
86.714598
 20
224.74023
 11
88.48237
 21
226.50799
  0
LINE
  8
1-1
  6
CONTINUOUS
 62
    7
 10
88.482358
 20
222.97247
 11
86.714598
 21
224.74023
  0
LINE
  8
1-1
  6
CONTINUOUS
 62
    7
 10
43.368932
 20
271.62137
 11
45.136691
 21
269.85361
  0
LINE
  8
1-1
  6
CONTINUOUS
 62
    7
 10
41.60116
 20
269.85358
 11
43.368919
 21
268.08582
  0
LINE
  8
1-1
  6
CONTINUOUS
 62
    7
 10
43.368919
 20
268.08582
 11
45.136691
 21
269.85361
  0
LINE
  8
1-1
  6
CONTINUOUS
 62
    7
 10
90.250228
 20
269.85371
 11
88.482469
 21
271.62149
  0
LINE
  8
1-1
  6
CONTINUOUS
 62
    7
 10
90.250228
 20
269.85371
 11
88.482469
 21
268.08595
  0
LINE
  8
1-1
  6
CONTINUOUS
 62
    7
 10
88.482469
 20
268.08595
 11
86.714697
 21
269.85371
  0
LINE
  8
1-1
  6
CONTINUOUS
 62
    7
 10
88.482469
 20
271.62149
 11
86.714697
 21
269.85371
  0
LINE
  8
1-1
  6
CENTER1
 62
    2
 10
44.766274
 20
226.13755
 11
41.664059
 21
223.03535
  0
LINE
  8
1-1
  6
CENTER1
 62
    2
 10
92.46312
 20
273.83439
 11
85.967812
 21
267.33907
  0
LINE
  8
1-1
  6
CENTER1
 62
    2
 10
67.451358
 20
248.82261
 11
63.767462
 21
245.13872
  0
LINE
  8
1-1
  6
CENTER1
 62
    2
 10
40.533915
 20
272.68882
 11
45.865884
 21
267.35687
  0
LINE
  8
1-1
  6
CENTER1
 62
    2
 10
64.188456
 20
249.03432
 11
67.581537
 21
245.64127
  0
LINE
  8
1-1
  6
CENTER1
 62
    2
 10
86.388831
 20
226.83399
 11
91.429972
 21
221.79285
  0
LINE
  8
1-1
  6
CONTINUOUS
 62
    7
 10
44.429694
 20
270.20725
 11
44.344847
 21
270.1224
  0
LINE
  8
1-1
  6
CONTINUOUS
 62
    7
 10
43.36903
 20
271.26792
 11
43.284183
 21
271.18305
  0
LINE
  8
1-1
  6
CONTINUOUS
 62
    7
 10
43.284183
 20
271.18305
 11
44.344847
 21
270.1224
  0
LINE
  8
1-1
  6
CONTINUOUS
 62
    7
 10
42.393239
 20
269.58501
 11
42.30838
 21
269.50016
  0
LINE
  8
1-1
  6
CONTINUOUS
 62
    7
 10
42.393239
 20
269.58501
 11
43.453902
 21
268.52436
  0
LINE
  8
1-1
  6
CONTINUOUS
 62
    7
 10
43.453902
 20
268.52436
 11
43.369043
 21
268.43949
  0
LINE
  8
1-1
  6
CONTINUOUS
 62
    7
 10
42.30838
 20
269.50016
 11
43.369043
 21
268.43949
  0
LINE
  8
1-1
  6
CONTINUOUS
 62
    7
 10
41.60116
 20
269.85358
 11
43.368932
 21
271.62137
  0
LINE
  8
1-1
  6
CONTINUOUS
 62
    7
 10
43.36903
 20
271.26792
 11
44.429694
 21
270.20725
  0
LINE
  8
1-1
  6
CONTINUOUS
 62
    7
 10
63.846123
 20
251.45554
 11
63.514875
 21
251.78679
  0
LINE
  8
1-1
  6
CONTINUOUS
 62
    7
 10
42.407368
 20
268.89203
 11
59.807806
 21
251.49164
  0
LINE
  8
1-1
  6
CONTINUOUS
 62
    7
 10
42.407269
 20
225.70186
 11
59.81158
 21
243.10618
  0
LINE
  8
1-1
  6
CONTINUOUS
 62
    7
 10
63.514418
 20
242.80678
 11
63.564314
 21
242.85669
  0
LINE
  8
1-1
  6
CONTINUOUS
 62
    7
 10
68.337342
 20
242.80655
 11
68.240605
 21
242.9033
  0
LINE
  8
1-1
  6
CONTINUOUS
 62
    7
 10
68.337342
 20
242.80655
 11
68.660436
 21
243.12964
  0
LINE
  8
1-1
  6
CONTINUOUS
 62
    7
 10
71.993327
 20
243.1528
 11
89.444144
 21
225.702
  0
LINE
  8
1-1
  6
CONTINUOUS
 62
    7
 10
68.015905
 20
251.46606
 11
68.336871
 21
251.78704
  0
LINE
  8
1-1
  6
CONTINUOUS
 62
    7
 10
68.336871
 20
251.78704
 11
68.675233
 21
251.44866
  0
LINE
  8
1-1
  6
CONTINUOUS
 62
    7
 10
72.016141
 20
251.46408
 11
89.444131
 21
268.89206
  0
LINE
  8
1-0
  6
CONTINUOUS
 62
    4
 10
65.924364
 20
100.54053
 11
95.924364
 21
100.54053
  0
LINE
  8
1-0
  6
CONTINUOUS
 62
    4
 10
65.924364
 20
192.16216
 11
65.924364
 21
100.54053
  0
LINE
  8
1-0
  6
CONTINUOUS
 62
    4
 10
95.924364
 20
192.16216
 11
95.924364
 21
100.54053
  0
LINE
  8
1-0
  6
CENTER2
 62
    2
 10
44.180837
 20
13.662167
 11
52.781511
 21
13.662167
  0
LINE
  8
1-0
  6
CENTER2
 62
    2
 10
69.934337
 20
73.512168
 11
53.574358
 21
73.512168
  0
LINE
  8
1-0
  6
CONTINUOUS
 62
    4
 10
16.304344
 20
73.512168
 11
16.304344
 21
26.182164
  0
LINE
  8
1-0
  6
CONTINUOUS
 62
    4
 10
57.320795
 20
73.512168
 11
16.304344
 21
73.512168
  0
LINE
  8
1-0
  6
CONTINUOUS
 62
    4
 10
57.320795
 20
26.182164
 11
16.304344
 21
26.182164
  0
LINE
  8
1-0
  6
CONTINUOUS
 62
    4
 10
16.304344
 20
13.662191
 11
16.304344
 21
26.182151
  0
LINE
  8
1-0
  6
CONTINUOUS
 62
    4
 10
46.292912
 20
13.662191
 11
16.304344
 21
13.662191
  0
LINE
  8
1-0
  6
CONTINUOUS
 62
    4
 10
46.292912
 20
26.182151
 11
16.304344
 21
26.182151
  0
LINE
  8
1-0
  6
CONTINUOUS
 62
    4
 10
16.304344
 20
12.162162
 11
16.304344
 21
13.662167
  0
LINE
  8
1-0
  6
CONTINUOUS
 62
    4
 10
46.292912
 20
12.162162
 11
16.304344
 21
12.162162
  0
LINE
  8
1-0
  6
CONTINUOUS
 62
    4
 10
46.292912
 20
13.662167
 11
16.304344
 21
13.662167
  0
LINE
  8
1-1
  6
CENTER1
 62
    2
 10
65.924364
 20
268.37837
 11
65.924364
 21
36.607014
  0
LINE
  8
1-0
  6
CONTINUOUS
 62
    7
 10
25.920669
 20
39.500897
 11
25.920669
 21
48.726913
  0
LINE
  8
1-0
  6
CONTINUOUS
 62
    4
 10
25.920657
 20
82.702702
 11
65.924364
 21
82.702702
  0
LINE
  8
1-0
  6
CONTINUOUS
 62
    4
 10
25.920657
 20
48.648648
 11
25.920657
 21
82.702702
  0
LINE
  8
1-0
  6
CONTINUOUS
 62
    4
 10
65.924364
 20
48.648648
 11
65.924364
 21
82.702702
  0
LINE
  8
1-0
  6
CONTINUOUS
 62
    7
 10
63.158927
 20
71.440763
 11
71.174882
 21
33.832177
  0
LINE
  8
1-0
  6
CONTINUOUS
 62
    7
 10
61.691875
 20
71.128067
 11
69.757485
 21
33.286548
  0
LINE
  8
1-0
  6
CONTINUOUS
 62
    7
 10
61.50992
 20
71.231608
 11
53.098797
 21
27.417445
  0
LINE
  8
1-0
  6
CONTINUOUS
 62
    7
 10
62.121424
 20
69.11275
 11
54.076816
 21
27.208003
  0
LINE
  8
1-0
  6
CONTINUOUS
 62
    7
 10
36.790435
 20
36.053008
 11
60.887281
 21
70.36889
  0
LINE
  8
1-0
  6
CENTER2
 62
    2
 10
62.226945
 20
72.262442
 11
62.226945
 21
78.406478
  0
LINE
  8
1-0
  6
CONTINUOUS
 62
    4
 10
62.226945
 20
78.406478
 11
65.924364
 21
78.406478
  0
LINE
  8
1-0
  6
CONTINUOUS
 62
    4
 10
43.369043
 20
279.10165
 11
88.482438
 21
279.10165
  0
LINE
  8
1-0
  6
CONTINUOUS
 62
    4
 10
43.369043
 20
269.85371
 11
43.369043
 21
279.10165
  0
LINE
  8
1-0
  6
CONTINUOUS
 62
    4
 10
88.482438
 20
269.85371
 11
88.482438
 21
279.10165
  0
LINE
  8
1-0
  6
CONTINUOUS
 62
    4
 10
82.357727
 20
275.97846
 11
37.244193
 21
230.86494
  0
LINE
  8
1-0
  6
CONTINUOUS
 62
    4
 10
88.727434
 20
269.60874
 11
82.357727
 21
275.97846
  0
LINE
  8
1-0
  6
CONTINUOUS
 62
    4
 10
43.613906
 20
224.49522
 11
37.244196
 21
230.86494
  0
LINE
  8
1-0
  6
CONTINUOUS
 62
    4
 10
65.925756
 20
247.2968
 11
45.675757
 21
212.22277
  0
LINE
  8
1-0
  6
CONTINUOUS
 62
    4
 10
45.675757
 20
212.22277
 11
47.797077
 21
214.3441
  0
LINE
  8
1-0
  6
CONTINUOUS
 62
    4
 10
45.675757
 20
212.22277
 11
46.452214
 21
215.12054
  0
LINE
  8
1-0
  6
CONTINUOUS
 62
    7
 10
97.874555
 20
259.51673
 11
134.53289
 21
259.51673
  0
LINE
  8
1-0
  6
CONTINUOUS
 62
    7
 10
97.874555
 20
259.51673
 11
90.074905
 21
267.31638
  0
LINE
  8
1-0
  6
CONTINUOUS
 62
    4
 10
90.074905
 20
267.31638
 11
92.67298
 21
265.81638
  0
LINE
  8
1-0
  6
CONTINUOUS
 62
    4
 10
90.074905
 20
267.31638
 11
91.574904
 21
264.71832
  0
LINE
  8
1-0
  6
CONTINUOUS
 62
    4
 10
65.924364
 20
45.405405
 11
245.92435
 21
45.405405
  0
LINE
  8
1-0
  6
CONTINUOUS
 62
    4
 10
65.924364
 20
73.713275
 11
65.924364
 21
45.405405
  0
LINE
  8
1-0
  6
CONTINUOUS
 62
    4
 10
245.92435
 20
73.713275
 11
245.92435
 21
45.405405
  0
LINE
  8
1-1
  6
CONTINUOUS
 62
    7
 10
34.881885
 20
34.607471
 11
33.553891
 21
32.178252
  0
LINE
  8
1-1
  6
CONTINUOUS
 62
    7
 10
33.565718
 20
35.326992
 11
32.237721
 21
32.89777
  0
LINE
  8
1-1
  6
CONTINUOUS
 62
    7
 10
32.249558
 20
36.046504
 11
30.921561
 21
33.617288
  0
LINE
  8
1-1
  6
CONTINUOUS
 62
    7
 10
30.933395
 20
36.766018
 11
29.605392
 21
34.336793
  0
LINE
  8
1-1
  6
CONTINUOUS
 62
    7
 10
29.617228
 20
37.485539
 11
28.289222
 21
35.056311
  0
LINE
  8
1-1
  6
CONTINUOUS
 62
    7
 10
28.301059
 20
38.20506
 11
26.973062
 21
35.775829
  0
LINE
  8
1-1
  6
CONTINUOUS
 62
    7
 10
26.984886
 20
38.924578
 11
25.656892
 21
36.495347
  0
LINE
  8
1-1
  6
CONTINUOUS
 62
    7
 10
28.534951
 20
41.760013
 11
27.560506
 21
39.977503
  0
LINE
  8
1-1
  6
CONTINUOUS
 62
    7
 10
29.851121
 20
41.040489
 11
28.876669
 21
39.257988
  0
LINE
  8
1-1
  6
CONTINUOUS
 62
    7
 10
31.167287
 20
40.320977
 11
30.192835
 21
38.53847
  0
LINE
  8
1-1
  6
CONTINUOUS
 62
    7
 10
32.483454
 20
39.601472
 11
31.508999
 21
37.818955
  0
LINE
  8
1-1
  6
CONTINUOUS
 62
    7
 10
33.799623
 20
38.881954
 11
32.825168
 21
37.099437
  0
LINE
  8
1-1
  6
CONTINUOUS
 62
    7
 10
35.115793
 20
38.162436
 11
34.141338
 21
36.37992
  0
LINE
  8
1-1
  6
CONTINUOUS
 62
    7
 10
36.431962
 20
37.44293
 11
35.457501
 21
35.660405
  0
LINE
  8
1-0
  6
CONTINUOUS
 62
    4
 10
33.553891
 20
26.182151
 11
20.1607
 21
26.182151
  0
LINE
  8
1-0
  6
CONTINUOUS
 62
    4
 10
24.455805
 20
26.182151
 11
24.455805
 21
32.178252
  0
LINE
  8
1-0
  6
CONTINUOUS
 62
    4
 10
33.553891
 20
32.178252
 11
24.455805
 21
32.178252
  0
CIRCLE
  8
1-1
  6
CONTINUOUS
 62
    7
 10
72.217068
 20
33.279876
 40
0.6
  0
ARC
  8
1-1
  6
CONTINUOUS
 62
    7
 10
246.30337
 20
100.56585
 40
0.05
 50
291
 51
21
  0
ARC
  8
1-1
  6
CONTINUOUS
 62
    7
 10
246.61154
 20
99.762972
 40
0.05
 50
21
 51
111
  0
ARC
  8
1-1
  6
CONTINUOUS
 62
    7
 10
246.28635
 20
99.745218
 40
0.05
 50
201
 51
291
  0
ARC
  8
1-1
  6
CONTINUOUS
 62
    7
 10
246.0498
 20
100.36141
 40
0.05
 50
111
 51
201
  0
CIRCLE
  8
1-1
  6
CONTINUOUS
 62
    7
 10
244.93568
 20
99.580275
 40
0.25
  0
CIRCLE
  8
1-1
  6
CONTINUOUS
 62
    7
 10
244.93568
 20
99.580275
 40
1.1499999
  0
ARC
  8
1-1
  6
CONTINUOUS
 62
    7
 10
244.93568
 20
99.580275
 40
1.1800001
 50
21
 51
92.955245
  0
ARC
  8
1-1
  6
CONTINUOUS
 62
    7
 10
244.93568
 20
99.580275
 40
1.2400002
 50
38.894424
 51
92.955352
  0
CIRCLE
  8
1-1
  6
CONTINUOUS
 62
    7
 10
244.93568
 20
99.580275
 40
1
  0
ARC
  8
1-1
  6
CONTINUOUS
 62
    7
 10
114.76638
 20
53.014711
 40
4.5000001
 50
200.0559
 51
291
  0
LINE
  8
1-1
  6
CONTINUOUS
 62
    7
 10
63.056323
 20
16.782409
 11
63.05092
 21
16.825311
  0
LINE
  8
1-1
  6
CONTINUOUS
 62
    7
 10
63.05092
 20
16.825311
 11
63.040333
 21
16.866235
  0
LINE
  8
1-1
  6
CONTINUOUS
 62
    7
 10
63.040333
 20
16.866235
 11
63.024882
 21
16.903937
  0
LINE
  8
1-1
  6
CONTINUOUS
 62
    7
 10
63.024882
 20
16.903937
 11
63.005037
 21
16.937271
  0
LINE
  8
1-1
  6
CONTINUOUS
 62
    7
 10
63.005037
 20
16.937271
 11
62.981401
 21
16.965224
  0
LINE
  8
1-1
  6
CONTINUOUS
 62
    7
 10
62.981401
 20
16.965224
 11
62.954692
 21
16.986947
  0
LINE
  8
1-1
  6
CONTINUOUS
 62
    7
 10
62.954692
 20
16.986947
 11
62.925722
 21
17.001781
  0
LINE
  8
1-1
  6
CONTINUOUS
 62
    7
 10
62.925722
 20
17.001781
 11
62.895372
 21
17.009273
  0
LINE
  8
1-1
  6
CONTINUOUS
 62
    7
 10
62.895372
 20
17.009273
 11
62.864562
 21
17.009198
  0
LINE
  8
1-1
  6
CONTINUOUS
 62
    7
 10
62.864562
 20
17.009198
 11
62.83423
 21
17.001556
  0
LINE
  8
1-1
  6
CONTINUOUS
 62
    7
 10
62.83423
 20
17.001556
 11
62.805297
 21
16.98658
  0
LINE
  8
1-1
  6
CONTINUOUS
 62
    7
 10
62.805297
 20
16.98658
 11
62.778642
 21
16.964726
  0
LINE
  8
1-1
  6
CONTINUOUS
 62
    7
 10
62.778642
 20
16.964726
 11
62.755075
 21
16.936657
  0
LINE
  8
1-1
  6
CONTINUOUS
 62
    7
 10
62.755075
 20
16.936657
 11
62.735312
 21
16.903226
  0
LINE
  8
1-1
  6
CONTINUOUS
 62
    7
 10
62.735312
 20
16.903226
 11
62.719953
 21
16.865448
  0
LINE
  8
1-1
  6
CONTINUOUS
 62
    7
 10
62.719953
 20
16.865448
 11
62.709466
 21
16.824473
  0
LINE
  8
1-1
  6
CONTINUOUS
 62
    7
 10
62.709466
 20
16.824473
 11
62.704169
 21
16.781544
  0
LINE
  8
1-1
  6
CONTINUOUS
 62
    7
 10
62.704169
 20
16.781544
 11
62.704222
 21
16.737966
  0
LINE
  8
1-1
  6
CONTINUOUS
 62
    7
 10
62.704222
 20
16.737966
 11
62.709625
 21
16.695063
  0
LINE
  8
1-1
  6
CONTINUOUS
 62
    7
 10
62.709625
 20
16.695063
 11
62.720213
 21
16.654139
  0
LINE
  8
1-1
  6
CONTINUOUS
 62
    7
 10
62.720213
 20
16.654139
 11
62.735664
 21
16.616438
  0
LINE
  8
1-1
  6
CONTINUOUS
 62
    7
 10
62.735664
 20
16.616438
 11
62.755509
 21
16.583104
  0
LINE
  8
1-1
  6
CONTINUOUS
 62
    7
 10
62.755509
 20
16.583104
 11
62.779145
 21
16.555151
  0
LINE
  8
1-1
  6
CONTINUOUS
 62
    7
 10
62.779145
 20
16.555151
 11
62.805853
 21
16.533427
  0
LINE
  8
1-1
  6
CONTINUOUS
 62
    7
 10
62.805853
 20
16.533427
 11
62.834823
 21
16.518594
  0
LINE
  8
1-1
  6
CONTINUOUS
 62
    7
 10
62.834823
 20
16.518594
 11
62.865174
 21
16.511101
  0
LINE
  8
1-1
  6
CONTINUOUS
 62
    7
 10
62.865174
 20
16.511101
 11
62.895983
 21
16.511177
  0
LINE
  8
1-1
  6
CONTINUOUS
 62
    7
 10
62.895983
 20
16.511177
 11
62.926316
 21
16.518819
  0
LINE
  8
1-1
  6
CONTINUOUS
 62
    7
 10
62.926316
 20
16.518819
 11
62.955249
 21
16.533794
  0
LINE
  8
1-1
  6
CONTINUOUS
 62
    7
 10
62.955249
 20
16.533794
 11
62.981904
 21
16.555649
  0
LINE
  8
1-1
  6
CONTINUOUS
 62
    7
 10
62.981904
 20
16.555649
 11
63.005471
 21
16.583718
  0
LINE
  8
1-1
  6
CONTINUOUS
 62
    7
 10
63.005471
 20
16.583718
 11
63.025234
 21
16.617149
  0
LINE
  8
1-1
  6
CONTINUOUS
 62
    7
 10
63.025234
 20
16.617149
 11
63.040592
 21
16.654926
  0
LINE
  8
1-1
  6
CONTINUOUS
 62
    7
 10
63.040592
 20
16.654926
 11
63.051079
 21
16.695902
  0
LINE
  8
1-1
  6
CONTINUOUS
 62
    7
 10
63.051079
 20
16.695902
 11
63.056377
 21
16.738831
  0
LINE
  8
1-1
  6
CONTINUOUS
 62
    7
 10
63.056377
 20
16.738831
 11
63.056323
 21
16.782409
  0
LINE
  8
1-1
  6
CONTINUOUS
 62
    7
 10
44.13083
 20
13.462167
 11
44.15514
 21
13.465205
  0
LINE
  8
1-1
  6
CONTINUOUS
 62
    7
 10
44.15514
 20
13.465205
 11
44.178712
 21
13.474228
  0
LINE
  8
1-1
  6
CONTINUOUS
 62
    7
 10
44.178712
 20
13.474228
 11
44.20083
 21
13.488961
  0
LINE
  8
1-1
  6
CONTINUOUS
 62
    7
 10
44.20083
 20
13.488961
 11
44.22082
 21
13.508958
  0
LINE
  8
1-1
  6
CONTINUOUS
 62
    7
 10
44.22082
 20
13.508958
 11
44.238076
 21
13.533609
  0
LINE
  8
1-1
  6
CONTINUOUS
 62
    7
 10
44.238076
 20
13.533609
 11
44.252073
 21
13.562167
  0
LINE
  8
1-1
  6
CONTINUOUS
 62
    7
 10
44.252073
 20
13.562167
 11
44.262387
 21
13.593762
  0
LINE
  8
1-1
  6
CONTINUOUS
 62
    7
 10
44.262387
 20
13.593762
 11
44.268703
 21
13.627437
  0
LINE
  8
1-1
  6
CONTINUOUS
 62
    7
 10
44.268703
 20
13.627437
 11
44.27083
 21
13.662167
  0
LINE
  8
1-1
  6
CONTINUOUS
 62
    7
 10
44.27083
 20
13.662167
 11
44.268703
 21
13.696896
  0
LINE
  8
1-1
  6
CONTINUOUS
 62
    7
 10
44.268703
 20
13.696896
 11
44.262387
 21
13.730571
  0
LINE
  8
1-1
  6
CONTINUOUS
 62
    7
 10
44.262387
 20
13.730571
 11
44.252073
 21
13.762167
  0
LINE
  8
1-1
  6
CONTINUOUS
 62
    7
 10
44.252073
 20
13.762167
 11
44.238076
 21
13.790724
  0
LINE
  8
1-1
  6
CONTINUOUS
 62
    7
 10
44.238076
 20
13.790724
 11
44.22082
 21
13.815375
  0
LINE
  8
1-1
  6
CONTINUOUS
 62
    7
 10
44.22082
 20
13.815375
 11
44.20083
 21
13.835372
  0
LINE
  8
1-1
  6
CONTINUOUS
 62
    7
 10
44.20083
 20
13.835372
 11
44.178712
 21
13.850105
  0
LINE
  8
1-1
  6
CONTINUOUS
 62
    7
 10
44.178712
 20
13.850105
 11
44.15514
 21
13.859128
  0
LINE
  8
1-1
  6
CONTINUOUS
 62
    7
 10
44.15514
 20
13.859128
 11
44.13083
 21
13.862167
  0
LINE
  8
1-1
  6
CONTINUOUS
 62
    7
 10
44.13083
 20
13.862167
 11
44.106519
 21
13.859128
  0
LINE
  8
1-1
  6
CONTINUOUS
 62
    7
 10
44.106519
 20
13.859128
 11
44.082947
 21
13.850105
  0
LINE
  8
1-1
  6
CONTINUOUS
 62
    7
 10
44.082947
 20
13.850105
 11
44.06083
 21
13.835372
  0
LINE
  8
1-1
  6
CONTINUOUS
 62
    7
 10
44.06083
 20
13.835372
 11
44.040839
 21
13.815375
  0
LINE
  8
1-1
  6
CONTINUOUS
 62
    7
 10
44.040839
 20
13.815375
 11
44.023583
 21
13.790724
  0
LINE
  8
1-1
  6
CONTINUOUS
 62
    7
 10
44.023583
 20
13.790724
 11
44.009586
 21
13.762167
  0
LINE
  8
1-1
  6
CONTINUOUS
 62
    7
 10
44.009586
 20
13.762167
 11
43.999273
 21
13.730571
  0
LINE
  8
1-1
  6
CONTINUOUS
 62
    7
 10
43.999273
 20
13.730571
 11
43.992957
 21
13.696896
  0
LINE
  8
1-1
  6
CONTINUOUS
 62
    7
 10
43.992957
 20
13.696896
 11
43.99083
 21
13.662167
  0
LINE
  8
1-1
  6
CONTINUOUS
 62
    7
 10
43.99083
 20
13.662167
 11
43.992957
 21
13.627437
  0
LINE
  8
1-1
  6
CONTINUOUS
 62
    7
 10
43.992957
 20
13.627437
 11
43.999273
 21
13.593762
  0
LINE
  8
1-1
  6
CONTINUOUS
 62
    7
 10
43.999273
 20
13.593762
 11
44.009586
 21
13.562167
  0
LINE
  8
1-1
  6
CONTINUOUS
 62
    7
 10
44.009586
 20
13.562167
 11
44.023583
 21
13.533609
  0
LINE
  8
1-1
  6
CONTINUOUS
 62
    7
 10
44.023583
 20
13.533609
 11
44.040839
 21
13.508958
  0
LINE
  8
1-1
  6
CONTINUOUS
 62
    7
 10
44.040839
 20
13.508958
 11
44.06083
 21
13.488961
  0
LINE
  8
1-1
  6
CONTINUOUS
 62
    7
 10
44.06083
 20
13.488961
 11
44.082947
 21
13.474228
  0
LINE
  8
1-1
  6
CONTINUOUS
 62
    7
 10
44.082947
 20
13.474228
 11
44.106519
 21
13.465205
  0
LINE
  8
1-1
  6
CONTINUOUS
 62
    7
 10
44.106519
 20
13.465205
 11
44.13083
 21
13.462167
  0
LINE
  8
1-1
  6
CONTINUOUS
 62
    7
 10
44.071234
 20
13.862167
 11
44.046923
 21
13.859128
  0
LINE
  8
1-1
  6
CONTINUOUS
 62
    7
 10
44.046923
 20
13.859128
 11
44.023351
 21
13.850105
  0
LINE
  8
1-1
  6
CONTINUOUS
 62
    7
 10
44.023351
 20
13.850105
 11
44.001234
 21
13.835372
  0
LINE
  8
1-1
  6
CONTINUOUS
 62
    7
 10
44.001234
 20
13.835372
 11
43.981244
 21
13.815375
  0
LINE
  8
1-1
  6
CONTINUOUS
 62
    7
 10
43.981244
 20
13.815375
 11
43.963988
 21
13.790724
  0
LINE
  8
1-1
  6
CONTINUOUS
 62
    7
 10
43.963988
 20
13.790724
 11
43.94999
 21
13.762167
  0
LINE
  8
1-1
  6
CONTINUOUS
 62
    7
 10
43.94999
 20
13.762167
 11
43.939677
 21
13.730571
  0
LINE
  8
1-1
  6
CONTINUOUS
 62
    7
 10
43.939677
 20
13.730571
 11
43.933361
 21
13.696896
  0
LINE
  8
1-1
  6
CONTINUOUS
 62
    7
 10
43.933361
 20
13.696896
 11
43.931234
 21
13.662167
  0
LINE
  8
1-1
  6
CONTINUOUS
 62
    7
 10
43.931234
 20
13.662167
 11
43.933361
 21
13.627437
  0
LINE
  8
1-1
  6
CONTINUOUS
 62
    7
 10
43.933361
 20
13.627437
 11
43.939677
 21
13.593762
  0
LINE
  8
1-1
  6
CONTINUOUS
 62
    7
 10
43.939677
 20
13.593762
 11
43.94999
 21
13.562167
  0
LINE
  8
1-1
  6
CONTINUOUS
 62
    7
 10
43.94999
 20
13.562167
 11
43.963988
 21
13.533609
  0
LINE
  8
1-1
  6
CONTINUOUS
 62
    7
 10
43.963988
 20
13.533609
 11
43.981244
 21
13.508958
  0
LINE
  8
1-1
  6
CONTINUOUS
 62
    7
 10
43.981244
 20
13.508958
 11
44.001234
 21
13.488961
  0
LINE
  8
1-1
  6
CONTINUOUS
 62
    7
 10
44.001234
 20
13.488961
 11
44.023351
 21
13.474228
  0
LINE
  8
1-1
  6
CONTINUOUS
 62
    7
 10
44.023351
 20
13.474228
 11
44.046923
 21
13.465205
  0
LINE
  8
1-1
  6
CONTINUOUS
 62
    7
 10
44.046923
 20
13.465205
 11
44.071234
 21
13.462167
  0
LINE
  8
1-1
  6
CONTINUOUS
 62
    7
 10
44.180837
 20
13.532167
 11
44.196465
 21
13.534141
  0
LINE
  8
1-1
  6
CONTINUOUS
 62
    7
 10
44.196465
 20
13.534141
 11
44.211619
 21
13.540006
  0
LINE
  8
1-1
  6
CONTINUOUS
 62
    7
 10
44.211619
 20
13.540006
 11
44.225837
 21
13.549583
  0
LINE
  8
1-1
  6
CONTINUOUS
 62
    7
 10
44.225837
 20
13.549583
 11
44.238687
 21
13.562581
  0
LINE
  8
1-1
  6
CONTINUOUS
 62
    7
 10
44.238687
 20
13.562581
 11
44.24978
 21
13.578604
  0
LINE
  8
1-1
  6
CONTINUOUS
 62
    7
 10
44.24978
 20
13.578604
 11
44.258779
 21
13.597167
  0
LINE
  8
1-1
  6
CONTINUOUS
 62
    7
 10
44.258779
 20
13.597167
 11
44.265409
 21
13.617704
  0
LINE
  8
1-1
  6
CONTINUOUS
 62
    7
 10
44.265409
 20
13.617704
 11
44.269469
 21
13.639592
  0
LINE
  8
1-1
  6
CONTINUOUS
 62
    7
 10
44.269469
 20
13.639592
 11
44.270836
 21
13.662167
  0
LINE
  8
1-1
  6
CONTINUOUS
 62
    7
 10
44.270836
 20
13.662167
 11
44.269469
 21
13.684741
  0
LINE
  8
1-1
  6
CONTINUOUS
 62
    7
 10
44.269469
 20
13.684741
 11
44.265409
 21
13.706629
  0
LINE
  8
1-1
  6
CONTINUOUS
 62
    7
 10
44.265409
 20
13.706629
 11
44.258779
 21
13.727167
  0
LINE
  8
1-1
  6
CONTINUOUS
 62
    7
 10
44.258779
 20
13.727167
 11
44.24978
 21
13.745729
  0
LINE
  8
1-1
  6
CONTINUOUS
 62
    7
 10
44.24978
 20
13.745729
 11
44.238687
 21
13.761752
  0
LINE
  8
1-1
  6
CONTINUOUS
 62
    7
 10
44.238687
 20
13.761752
 11
44.225837
 21
13.77475
  0
LINE
  8
1-1
  6
CONTINUOUS
 62
    7
 10
44.225837
 20
13.77475
 11
44.211619
 21
13.784327
  0
LINE
  8
1-1
  6
CONTINUOUS
 62
    7
 10
44.211619
 20
13.784327
 11
44.196465
 21
13.790192
  0
LINE
  8
1-1
  6
CONTINUOUS
 62
    7
 10
44.196465
 20
13.790192
 11
44.180837
 21
13.792167
  0
LINE
  8
1-1
  6
CONTINUOUS
 62
    7
 10
44.180837
 20
13.792167
 11
44.165209
 21
13.790192
  0
LINE
  8
1-1
  6
CONTINUOUS
 62
    7
 10
44.165209
 20
13.790192
 11
44.150056
 21
13.784327
  0
LINE
  8
1-1
  6
CONTINUOUS
 62
    7
 10
44.150056
 20
13.784327
 11
44.135838
 21
13.77475
  0
LINE
  8
1-1
  6
CONTINUOUS
 62
    7
 10
44.135838
 20
13.77475
 11
44.122987
 21
13.761752
  0
LINE
  8
1-1
  6
CONTINUOUS
 62
    7
 10
44.122987
 20
13.761752
 11
44.111894
 21
13.745729
  0
LINE
  8
1-1
  6
CONTINUOUS
 62
    7
 10
44.111894
 20
13.745729
 11
44.102896
 21
13.727167
  0
LINE
  8
1-1
  6
CONTINUOUS
 62
    7
 10
44.102896
 20
13.727167
 11
44.096266
 21
13.706629
  0
LINE
  8
1-1
  6
CONTINUOUS
 62
    7
 10
44.096266
 20
13.706629
 11
44.092206
 21
13.684741
  0
LINE
  8
1-1
  6
CONTINUOUS
 62
    7
 10
44.092206
 20
13.684741
 11
44.090838
 21
13.662167
  0
LINE
  8
1-1
  6
CONTINUOUS
 62
    7
 10
44.090838
 20
13.662167
 11
44.092206
 21
13.639592
  0
LINE
  8
1-1
  6
CONTINUOUS
 62
    7
 10
44.092206
 20
13.639592
 11
44.096266
 21
13.617704
  0
LINE
  8
1-1
  6
CONTINUOUS
 62
    7
 10
44.096266
 20
13.617704
 11
44.102896
 21
13.597167
  0
LINE
  8
1-1
  6
CONTINUOUS
 62
    7
 10
44.102896
 20
13.597167
 11
44.111894
 21
13.578604
  0
LINE
  8
1-1
  6
CONTINUOUS
 62
    7
 10
44.111894
 20
13.578604
 11
44.122987
 21
13.562581
  0
LINE
  8
1-1
  6
CONTINUOUS
 62
    7
 10
44.122987
 20
13.562581
 11
44.135838
 21
13.549583
  0
LINE
  8
1-1
  6
CONTINUOUS
 62
    7
 10
44.135838
 20
13.549583
 11
44.150056
 21
13.540006
  0
LINE
  8
1-1
  6
CONTINUOUS
 62
    7
 10
44.150056
 20
13.540006
 11
44.165209
 21
13.534141
  0
LINE
  8
1-1
  6
CONTINUOUS
 62
    7
 10
44.165209
 20
13.534141
 11
44.180837
 21
13.532167
  0
LINE
  8
1-1
  6
CONTINUOUS
 62
    7
 10
43.986387
 20
14.162167
 11
43.92561
 21
14.15457
  0
LINE
  8
1-1
  6
CONTINUOUS
 62
    7
 10
43.92561
 20
14.15457
 11
43.86668
 21
14.132013
  0
LINE
  8
1-1
  6
CONTINUOUS
 62
    7
 10
43.86668
 20
14.132013
 11
43.811387
 21
14.095179
  0
LINE
  8
1-1
  6
CONTINUOUS
 62
    7
 10
43.811387
 20
14.095179
 11
43.761411
 21
14.045189
  0
LINE
  8
1-1
  6
CONTINUOUS
 62
    7
 10
43.761411
 20
14.045189
 11
43.718271
 21
13.98356
  0
LINE
  8
1-1
  6
CONTINUOUS
 62
    7
 10
43.718271
 20
13.98356
 11
43.683278
 21
13.912167
  0
LINE
  8
1-1
  6
CONTINUOUS
 62
    7
 10
43.683278
 20
13.912167
 11
43.657494
 21
13.833177
  0
LINE
  8
1-1
  6
CONTINUOUS
 62
    7
 10
43.657494
 20
13.833177
 11
43.641704
 21
13.748991
  0
LINE
  8
1-1
  6
CONTINUOUS
 62
    7
 10
43.641704
 20
13.748991
 11
43.636387
 21
13.662167
  0
LINE
  8
1-1
  6
CONTINUOUS
 62
    7
 10
44.396875
 20
13.845435
 11
44.369651
 21
13.923432
  0
LINE
  8
1-1
  6
CONTINUOUS
 62
    7
 10
44.369651
 20
13.923432
 11
44.333359
 21
13.993491
  0
LINE
  8
1-1
  6
CONTINUOUS
 62
    7
 10
44.333359
 20
13.993491
 11
44.289103
 21
14.053482
  0
LINE
  8
1-1
  6
CONTINUOUS
 62
    7
 10
44.289103
 20
14.053482
 11
44.238228
 21
14.101584
  0
LINE
  8
1-1
  6
CONTINUOUS
 62
    7
 10
44.238228
 20
14.101584
 11
44.182278
 21
14.136334
  0
LINE
  8
1-1
  6
CONTINUOUS
 62
    7
 10
44.182278
 20
14.136334
 11
44.122954
 21
14.156677
  0
LINE
  8
1-1
  6
CONTINUOUS
 62
    7
 10
44.122954
 20
14.156677
 11
44.062059
 21
14.161995
  0
LINE
  8
1-1
  6
CONTINUOUS
 62
    7
 10
44.062059
 20
14.161995
 11
44.001442
 21
14.152125
  0
LINE
  8
1-1
  6
CONTINUOUS
 62
    7
 10
44.001442
 20
14.152125
 11
43.942946
 21
14.127368
  0
LINE
  8
1-1
  6
CONTINUOUS
 62
    7
 10
43.942946
 20
14.127368
 11
43.888348
 21
14.088477
  0
LINE
  8
1-1
  6
CONTINUOUS
 62
    7
 10
43.888348
 20
14.088477
 11
43.839307
 21
14.036632
  0
LINE
  8
1-1
  6
CONTINUOUS
 62
    7
 10
43.839307
 20
14.036632
 11
43.797313
 21
13.973409
  0
LINE
  8
1-1
  6
CONTINUOUS
 62
    7
 10
43.797313
 20
13.973409
 11
43.763641
 21
13.900729
  0
LINE
  8
1-1
  6
CONTINUOUS
 62
    7
 10
43.763641
 20
13.900729
 11
43.739316
 21
13.820801
  0
LINE
  8
1-1
  6
CONTINUOUS
 62
    7
 10
43.739316
 20
13.820801
 11
43.725076
 21
13.736052
  0
LINE
  8
1-1
  6
CONTINUOUS
 62
    7
 10
43.725076
 20
13.736052
 11
43.721234
 21
13.662167
  0
LINE
  8
1-1
  6
CONTINUOUS
 62
    7
 10
42.74894
 20
13.862167
 11
42.724629
 21
13.859128
  0
LINE
  8
1-1
  6
CONTINUOUS
 62
    7
 10
42.724629
 20
13.859128
 11
42.701057
 21
13.850105
  0
LINE
  8
1-1
  6
CONTINUOUS
 62
    7
 10
42.701057
 20
13.850105
 11
42.67894
 21
13.835372
  0
LINE
  8
1-1
  6
CONTINUOUS
 62
    7
 10
42.67894
 20
13.835372
 11
42.65895
 21
13.815375
  0
LINE
  8
1-1
  6
CONTINUOUS
 62
    7
 10
42.65895
 20
13.815375
 11
42.641694
 21
13.790724
  0
LINE
  8
1-1
  6
CONTINUOUS
 62
    7
 10
42.641694
 20
13.790724
 11
42.627697
 21
13.762167
  0
LINE
  8
1-1
  6
CONTINUOUS
 62
    7
 10
42.627697
 20
13.762167
 11
42.617383
 21
13.730571
  0
LINE
  8
1-1
  6
CONTINUOUS
 62
    7
 10
42.617383
 20
13.730571
 11
42.611067
 21
13.696896
  0
LINE
  8
1-1
  6
CONTINUOUS
 62
    7
 10
42.611067
 20
13.696896
 11
42.60894
 21
13.662167
  0
LINE
  8
1-1
  6
CONTINUOUS
 62
    7
 10
42.60894
 20
13.662167
 11
42.611067
 21
13.627437
  0
LINE
  8
1-1
  6
CONTINUOUS
 62
    7
 10
42.611067
 20
13.627437
 11
42.617383
 21
13.593762
  0
LINE
  8
1-1
  6
CONTINUOUS
 62
    7
 10
42.617383
 20
13.593762
 11
42.627697
 21
13.562167
  0
LINE
  8
1-1
  6
CONTINUOUS
 62
    7
 10
42.627697
 20
13.562167
 11
42.641694
 21
13.533609
  0
LINE
  8
1-1
  6
CONTINUOUS
 62
    7
 10
42.641694
 20
13.533609
 11
42.65895
 21
13.508958
  0
LINE
  8
1-1
  6
CONTINUOUS
 62
    7
 10
42.65895
 20
13.508958
 11
42.67894
 21
13.488961
  0
LINE
  8
1-1
  6
CONTINUOUS
 62
    7
 10
42.67894
 20
13.488961
 11
42.701057
 21
13.474228
  0
LINE
  8
1-1
  6
CONTINUOUS
 62
    7
 10
42.701057
 20
13.474228
 11
42.724629
 21
13.465205
  0
LINE
  8
1-1
  6
CONTINUOUS
 62
    7
 10
42.724629
 20
13.465205
 11
42.74894
 21
13.462167
  0
LINE
  8
1-1
  6
CONTINUOUS
 62
    7
 10
62.982799
 20
20.510188
 11
63.0135
 21
20.513986
  0
LINE
  8
1-1
  6
CONTINUOUS
 62
    7
 10
63.0135
 20
20.513986
 11
63.043269
 21
20.525265
  0
LINE
  8
1-1
  6
CONTINUOUS
 62
    7
 10
63.043269
 20
20.525265
 11
63.071199
 21
20.543682
  0
LINE
  8
1-1
  6
CONTINUOUS
 62
    7
 10
63.071199
 20
20.543682
 11
63.096444
 21
20.568677
  0
LINE
  8
1-1
  6
CONTINUOUS
 62
    7
 10
63.096444
 20
20.568677
 11
63.118236
 21
20.599491
  0
LINE
  8
1-1
  6
CONTINUOUS
 62
    7
 10
63.118236
 20
20.599491
 11
63.135913
 21
20.635188
  0
LINE
  8
1-1
  6
CONTINUOUS
 62
    7
 10
63.135913
 20
20.635188
 11
63.148937
 21
20.674683
  0
LINE
  8
1-1
  6
CONTINUOUS
 62
    7
 10
63.148937
 20
20.674683
 11
63.156913
 21
20.716776
  0
LINE
  8
1-1
  6
CONTINUOUS
 62
    7
 10
63.156913
 20
20.716776
 11
63.159599
 21
20.760188
  0
LINE
  8
1-1
  6
CONTINUOUS
 62
    7
 10
63.159599
 20
20.760188
 11
63.156913
 21
20.8036
  0
LINE
  8
1-1
  6
CONTINUOUS
 62
    7
 10
63.156913
 20
20.8036
 11
63.148937
 21
20.845693
  0
LINE
  8
1-1
  6
CONTINUOUS
 62
    7
 10
63.148937
 20
20.845693
 11
63.135913
 21
20.885188
  0
LINE
  8
1-1
  6
CONTINUOUS
 62
    7
 10
63.135913
 20
20.885188
 11
63.118236
 21
20.920885
  0
LINE
  8
1-1
  6
CONTINUOUS
 62
    7
 10
63.118236
 20
20.920885
 11
63.096444
 21
20.951699
  0
LINE
  8
1-1
  6
CONTINUOUS
 62
    7
 10
63.096444
 20
20.951699
 11
63.071199
 21
20.976694
  0
LINE
  8
1-1
  6
CONTINUOUS
 62
    7
 10
63.071199
 20
20.976694
 11
63.043269
 21
20.995111
  0
LINE
  8
1-1
  6
CONTINUOUS
 62
    7
 10
63.043269
 20
20.995111
 11
63.0135
 21
21.00639
  0
LINE
  8
1-1
  6
CONTINUOUS
 62
    7
 10
63.0135
 20
21.00639
 11
62.982799
 21
21.010188
  0
LINE
  8
1-1
  6
CONTINUOUS
 62
    7
 10
62.982799
 20
21.010188
 11
62.952098
 21
21.00639
  0
LINE
  8
1-1
  6
CONTINUOUS
 62
    7
 10
62.952098
 20
21.00639
 11
62.92233
 21
20.995111
  0
LINE
  8
1-1
  6
CONTINUOUS
 62
    7
 10
62.92233
 20
20.995111
 11
62.894399
 21
20.976694
  0
LINE
  8
1-1
  6
CONTINUOUS
 62
    7
 10
62.894399
 20
20.976694
 11
62.869155
 21
20.951699
  0
LINE
  8
1-1
  6
CONTINUOUS
 62
    7
 10
62.869155
 20
20.951699
 11
62.847363
 21
20.920885
  0
LINE
  8
1-1
  6
CONTINUOUS
 62
    7
 10
62.847363
 20
20.920885
 11
62.829686
 21
20.885188
  0
LINE
  8
1-1
  6
CONTINUOUS
 62
    7
 10
62.829686
 20
20.885188
 11
62.816662
 21
20.845693
  0
LINE
  8
1-1
  6
CONTINUOUS
 62
    7
 10
62.816662
 20
20.845693
 11
62.808685
 21
20.8036
  0
LINE
  8
1-1
  6
CONTINUOUS
 62
    7
 10
62.808685
 20
20.8036
 11
62.805999
 21
20.760188
  0
LINE
  8
1-1
  6
CONTINUOUS
 62
    7
 10
62.805999
 20
20.760188
 11
62.808685
 21
20.716776
  0
LINE
  8
1-1
  6
CONTINUOUS
 62
    7
 10
62.808685
 20
20.716776
 11
62.816662
 21
20.674683
  0
LINE
  8
1-1
  6
CONTINUOUS
 62
    7
 10
62.816662
 20
20.674683
 11
62.829686
 21
20.635188
  0
LINE
  8
1-1
  6
CONTINUOUS
 62
    7
 10
62.829686
 20
20.635188
 11
62.847363
 21
20.599491
  0
LINE
  8
1-1
  6
CONTINUOUS
 62
    7
 10
62.847363
 20
20.599491
 11
62.869155
 21
20.568677
  0
LINE
  8
1-1
  6
CONTINUOUS
 62
    7
 10
62.869155
 20
20.568677
 11
62.894399
 21
20.543682
  0
LINE
  8
1-1
  6
CONTINUOUS
 62
    7
 10
62.894399
 20
20.543682
 11
62.92233
 21
20.525265
  0
LINE
  8
1-1
  6
CONTINUOUS
 62
    7
 10
62.92233
 20
20.525265
 11
62.952098
 21
20.513986
  0
LINE
  8
1-1
  6
CONTINUOUS
 62
    7
 10
62.952098
 20
20.513986
 11
62.982799
 21
20.510188
  0
LINE
  8
1-1
  6
CONTINUOUS
 62
    7
 10
62.943902
 20
21.010188
 11
62.913201
 21
21.00639
  0
LINE
  8
1-1
  6
CONTINUOUS
 62
    7
 10
62.913201
 20
21.00639
 11
62.883433
 21
20.995111
  0
LINE
  8
1-1
  6
CONTINUOUS
 62
    7
 10
62.883433
 20
20.995111
 11
62.855502
 21
20.976694
  0
LINE
  8
1-1
  6
CONTINUOUS
 62
    7
 10
62.855502
 20
20.976694
 11
62.830257
 21
20.951699
  0
LINE
  8
1-1
  6
CONTINUOUS
 62
    7
 10
62.830257
 20
20.951699
 11
62.808465
 21
20.920885
  0
LINE
  8
1-1
  6
CONTINUOUS
 62
    7
 10
62.808465
 20
20.920885
 11
62.790789
 21
20.885188
  0
LINE
  8
1-1
  6
CONTINUOUS
 62
    7
 10
62.790789
 20
20.885188
 11
62.777764
 21
20.845693
  0
LINE
  8
1-1
  6
CONTINUOUS
 62
    7
 10
62.777764
 20
20.845693
 11
62.769788
 21
20.8036
  0
LINE
  8
1-1
  6
CONTINUOUS
 62
    7
 10
62.769788
 20
20.8036
 11
62.767102
 21
20.760188
  0
LINE
  8
1-1
  6
CONTINUOUS
 62
    7
 10
62.767102
 20
20.760188
 11
62.769788
 21
20.716776
  0
LINE
  8
1-1
  6
CONTINUOUS
 62
    7
 10
62.769788
 20
20.716776
 11
62.777764
 21
20.674683
  0
LINE
  8
1-1
  6
CONTINUOUS
 62
    7
 10
62.777764
 20
20.674683
 11
62.790789
 21
20.635188
  0
LINE
  8
1-1
  6
CONTINUOUS
 62
    7
 10
62.790789
 20
20.635188
 11
62.808465
 21
20.599491
  0
LINE
  8
1-1
  6
CONTINUOUS
 62
    7
 10
62.808465
 20
20.599491
 11
62.830257
 21
20.568677
  0
LINE
  8
1-1
  6
CONTINUOUS
 62
    7
 10
62.830257
 20
20.568677
 11
62.855502
 21
20.543682
  0
LINE
  8
1-1
  6
CONTINUOUS
 62
    7
 10
62.855502
 20
20.543682
 11
62.883433
 21
20.525265
  0
LINE
  8
1-1
  6
CONTINUOUS
 62
    7
 10
62.883433
 20
20.525265
 11
62.913201
 21
20.513986
  0
LINE
  8
1-1
  6
CONTINUOUS
 62
    7
 10
62.913201
 20
20.513986
 11
62.943902
 21
20.510188
  0
LINE
  8
1-1
  6
CONTINUOUS
 62
    7
 10
62.943902
 20
20.510188
 11
62.948561
 21
20.510275
  0
LINE
  8
1-1
  6
CONTINUOUS
 62
    7
 10
62.880273
 20
21.260188
 11
62.818871
 21
21.252592
  0
LINE
  8
1-1
  6
CONTINUOUS
 62
    7
 10
62.818871
 20
21.252592
 11
62.759334
 21
21.230034
  0
LINE
  8
1-1
  6
CONTINUOUS
 62
    7
 10
62.759334
 20
21.230034
 11
62.703473
 21
21.193201
  0
LINE
  8
1-1
  6
CONTINUOUS
 62
    7
 10
62.703473
 20
21.193201
 11
62.652983
 21
21.14321
  0
LINE
  8
1-1
  6
CONTINUOUS
 62
    7
 10
62.652983
 20
21.14321
 11
62.609399
 21
21.081582
  0
LINE
  8
1-1
  6
CONTINUOUS
 62
    7
 10
62.609399
 20
21.081582
 11
62.574046
 21
21.010188
  0
LINE
  8
1-1
  6
CONTINUOUS
 62
    7
 10
62.574046
 20
21.010188
 11
62.547997
 21
20.931198
  0
LINE
  8
1-1
  6
CONTINUOUS
 62
    7
 10
62.547997
 20
20.931198
 11
62.532045
 21
20.847012
  0
LINE
  8
1-1
  6
CONTINUOUS
 62
    7
 10
62.532045
 20
20.847012
 11
62.526673
 21
20.760188
  0
LINE
  8
1-1
  6
CONTINUOUS
 62
    7
 10
62.943902
 20
21.260188
 11
62.8825
 21
21.252592
  0
LINE
  8
1-1
  6
CONTINUOUS
 62
    7
 10
62.8825
 20
21.252592
 11
62.822964
 21
21.230034
  0
LINE
  8
1-1
  6
CONTINUOUS
 62
    7
 10
62.822964
 20
21.230034
 11
62.767102
 21
21.193201
  0
LINE
  8
1-1
  6
CONTINUOUS
 62
    7
 10
62.767102
 20
21.193201
 11
62.716612
 21
21.14321
  0
LINE
  8
1-1
  6
CONTINUOUS
 62
    7
 10
62.716612
 20
21.14321
 11
62.673029
 21
21.081582
  0
LINE
  8
1-1
  6
CONTINUOUS
 62
    7
 10
62.673029
 20
21.081582
 11
62.637675
 21
21.010188
  0
LINE
  8
1-1
  6
CONTINUOUS
 62
    7
 10
62.637675
 20
21.010188
 11
62.611627
 21
20.931198
  0
LINE
  8
1-1
  6
CONTINUOUS
 62
    7
 10
62.611627
 20
20.931198
 11
62.595674
 21
20.847012
  0
LINE
  8
1-1
  6
CONTINUOUS
 62
    7
 10
62.595674
 20
20.847012
 11
62.590302
 21
20.760188
  0
LINE
  8
1-1
  6
CONTINUOUS
 62
    7
 10
62.592709
 20
16.818424
 11
62.590892
 21
16.731306
  0
LINE
  8
1-1
  6
CONTINUOUS
 62
    7
 10
62.590892
 20
16.731306
 11
62.599802
 21
16.645066
  0
LINE
  8
1-1
  6
CONTINUOUS
 62
    7
 10
62.599802
 20
16.645066
 11
62.619167
 21
16.562323
  0
LINE
  8
1-1
  6
CONTINUOUS
 62
    7
 10
62.619167
 20
16.562323
 11
62.648399
 21
16.485593
  0
LINE
  8
1-1
  6
CONTINUOUS
 62
    7
 10
62.648399
 20
16.485593
 11
62.68661
 21
16.417206
  0
LINE
  8
1-1
  6
CONTINUOUS
 62
    7
 10
62.68661
 20
16.417206
 11
62.732638
 21
16.35924
  0
LINE
  8
1-1
  6
CONTINUOUS
 62
    7
 10
62.732638
 20
16.35924
 11
62.785086
 21
16.313457
  0
LINE
  8
1-1
  6
CONTINUOUS
 62
    7
 10
62.785086
 20
16.313457
 11
62.842359
 21
16.281247
  0
LINE
  8
1-1
  6
CONTINUOUS
 62
    7
 10
62.842359
 20
16.281247
 11
62.902717
 21
16.26359
  0
LINE
  8
1-1
  6
CONTINUOUS
 62
    7
 10
62.902717
 20
16.26359
 11
62.943902
 21
16.260187
  0
LINE
  8
1-1
  6
CONTINUOUS
 62
    7
 10
62.579745
 20
21.010188
 11
62.549044
 21
21.00639
  0
LINE
  8
1-1
  6
CONTINUOUS
 62
    7
 10
62.549044
 20
21.00639
 11
62.519276
 21
20.995111
  0
LINE
  8
1-1
  6
CONTINUOUS
 62
    7
 10
62.519276
 20
20.995111
 11
62.491345
 21
20.976694
  0
LINE
  8
1-1
  6
CONTINUOUS
 62
    7
 10
62.491345
 20
20.976694
 11
62.4661
 21
20.951699
  0
LINE
  8
1-1
  6
CONTINUOUS
 62
    7
 10
62.4661
 20
20.951699
 11
62.444308
 21
20.920885
  0
LINE
  8
1-1
  6
CONTINUOUS
 62
    7
 10
62.444308
 20
20.920885
 11
62.426631
 21
20.885188
  0
LINE
  8
1-1
  6
CONTINUOUS
 62
    7
 10
62.426631
 20
20.885188
 11
62.413607
 21
20.845693
  0
LINE
  8
1-1
  6
CONTINUOUS
 62
    7
 10
62.413607
 20
20.845693
 11
62.405631
 21
20.8036
  0
LINE
  8
1-1
  6
CONTINUOUS
 62
    7
 10
62.405631
 20
20.8036
 11
62.402945
 21
20.760188
  0
LINE
  8
1-1
  6
CONTINUOUS
 62
    7
 10
62.402945
 20
20.760188
 11
62.405631
 21
20.716776
  0
LINE
  8
1-1
  6
CONTINUOUS
 62
    7
 10
62.405631
 20
20.716776
 11
62.413607
 21
20.674683
  0
LINE
  8
1-1
  6
CONTINUOUS
 62
    7
 10
62.413607
 20
20.674683
 11
62.426631
 21
20.635188
  0
LINE
  8
1-1
  6
CONTINUOUS
 62
    7
 10
62.426631
 20
20.635188
 11
62.444308
 21
20.599491
  0
LINE
  8
1-1
  6
CONTINUOUS
 62
    7
 10
62.444308
 20
20.599491
 11
62.4661
 21
20.568677
  0
LINE
  8
1-1
  6
CONTINUOUS
 62
    7
 10
62.4661
 20
20.568677
 11
62.491345
 21
20.543682
  0
LINE
  8
1-1
  6
CONTINUOUS
 62
    7
 10
62.491345
 20
20.543682
 11
62.519276
 21
20.525265
  0
LINE
  8
1-1
  6
CONTINUOUS
 62
    7
 10
62.519276
 20
20.525265
 11
62.526669
 21
20.521719
  0
LINE
  8
1-1
  6
CONTINUOUS
 62
    7
 10
62.943902
 20
17.010187
 11
62.913201
 21
17.006389
  0
LINE
  8
1-1
  6
CONTINUOUS
 62
    7
 10
62.913201
 20
17.006389
 11
62.883433
 21
16.99511
  0
LINE
  8
1-1
  6
CONTINUOUS
 62
    7
 10
62.883433
 20
16.99511
 11
62.855502
 21
16.976694
  0
LINE
  8
1-1
  6
CONTINUOUS
 62
    7
 10
62.855502
 20
16.976694
 11
62.830257
 21
16.951698
  0
LINE
  8
1-1
  6
CONTINUOUS
 62
    7
 10
62.830257
 20
16.951698
 11
62.808465
 21
16.920884
  0
LINE
  8
1-1
  6
CONTINUOUS
 62
    7
 10
62.808465
 20
16.920884
 11
62.790789
 21
16.885187
  0
LINE
  8
1-1
  6
CONTINUOUS
 62
    7
 10
62.790789
 20
16.885187
 11
62.777764
 21
16.845692
  0
LINE
  8
1-1
  6
CONTINUOUS
 62
    7
 10
62.777764
 20
16.845692
 11
62.769788
 21
16.803599
  0
LINE
  8
1-1
  6
CONTINUOUS
 62
    7
 10
62.769788
 20
16.803599
 11
62.767102
 21
16.760187
  0
LINE
  8
1-1
  6
CONTINUOUS
 62
    7
 10
62.767102
 20
16.760187
 11
62.769788
 21
16.716775
  0
LINE
  8
1-1
  6
CONTINUOUS
 62
    7
 10
62.769788
 20
16.716775
 11
62.777764
 21
16.674682
  0
LINE
  8
1-1
  6
CONTINUOUS
 62
    7
 10
62.777764
 20
16.674682
 11
62.790789
 21
16.635187
  0
LINE
  8
1-1
  6
CONTINUOUS
 62
    7
 10
62.790789
 20
16.635187
 11
62.808465
 21
16.59949
  0
LINE
  8
1-1
  6
CONTINUOUS
 62
    7
 10
62.808465
 20
16.59949
 11
62.830257
 21
16.568676
  0
LINE
  8
1-1
  6
CONTINUOUS
 62
    7
 10
62.830257
 20
16.568676
 11
62.855502
 21
16.543681
  0
LINE
  8
1-1
  6
CONTINUOUS
 62
    7
 10
62.855502
 20
16.543681
 11
62.883433
 21
16.525264
  0
LINE
  8
1-1
  6
CONTINUOUS
 62
    7
 10
62.883433
 20
16.525264
 11
62.913201
 21
16.513985
  0
LINE
  8
1-1
  6
CONTINUOUS
 62
    7
 10
62.913201
 20
16.513985
 11
62.943902
 21
16.510187
  0
LINE
  8
1-1
  6
CONTINUOUS
 62
    7
 10
62.943902
 20
16.510187
 11
62.974603
 21
16.513985
  0
LINE
  8
1-1
  6
CONTINUOUS
 62
    7
 10
62.974603
 20
16.513985
 11
63.004371
 21
16.525264
  0
LINE
  8
1-1
  6
CONTINUOUS
 62
    7
 10
63.004371
 20
16.525264
 11
63.032302
 21
16.543681
  0
LINE
  8
1-1
  6
CONTINUOUS
 62
    7
 10
63.032302
 20
16.543681
 11
63.057547
 21
16.568676
  0
LINE
  8
1-1
  6
CONTINUOUS
 62
    7
 10
63.057547
 20
16.568676
 11
63.079339
 21
16.59949
  0
LINE
  8
1-1
  6
CONTINUOUS
 62
    7
 10
63.079339
 20
16.59949
 11
63.097015
 21
16.635187
  0
LINE
  8
1-1
  6
CONTINUOUS
 62
    7
 10
63.097015
 20
16.635187
 11
63.11004
 21
16.674682
  0
LINE
  8
1-1
  6
CONTINUOUS
 62
    7
 10
63.11004
 20
16.674682
 11
63.118016
 21
16.716775
  0
LINE
  8
1-1
  6
CONTINUOUS
 62
    7
 10
63.118016
 20
16.716775
 11
63.120702
 21
16.760187
  0
LINE
  8
1-1
  6
CONTINUOUS
 62
    7
 10
63.120702
 20
16.760187
 11
63.118016
 21
16.803599
  0
LINE
  8
1-1
  6
CONTINUOUS
 62
    7
 10
63.118016
 20
16.803599
 11
63.11004
 21
16.845692
  0
LINE
  8
1-1
  6
CONTINUOUS
 62
    7
 10
63.11004
 20
16.845692
 11
63.097015
 21
16.885187
  0
LINE
  8
1-1
  6
CONTINUOUS
 62
    7
 10
63.097015
 20
16.885187
 11
63.079339
 21
16.920884
  0
LINE
  8
1-1
  6
CONTINUOUS
 62
    7
 10
63.079339
 20
16.920884
 11
63.057547
 21
16.951698
  0
LINE
  8
1-1
  6
CONTINUOUS
 62
    7
 10
63.057547
 20
16.951698
 11
63.032302
 21
16.976694
  0
LINE
  8
1-1
  6
CONTINUOUS
 62
    7
 10
63.032302
 20
16.976694
 11
63.004371
 21
16.99511
  0
LINE
  8
1-1
  6
CONTINUOUS
 62
    7
 10
63.004371
 20
16.99511
 11
62.974603
 21
17.006389
  0
LINE
  8
1-1
  6
CONTINUOUS
 62
    7
 10
62.974603
 20
17.006389
 11
62.944604
 21
17.010185
  0
LINE
  8
1-1
  6
CONTINUOUS
 62
    7
 10
60.109033
 20
21.02632
 11
60.047631
 21
21.018724
  0
LINE
  8
1-1
  6
CONTINUOUS
 62
    7
 10
60.047631
 20
21.018724
 11
59.988095
 21
20.996167
  0
LINE
  8
1-1
  6
CONTINUOUS
 62
    7
 10
59.988095
 20
20.996167
 11
59.932233
 21
20.959333
  0
LINE
  8
1-1
  6
CONTINUOUS
 62
    7
 10
59.932233
 20
20.959333
 11
59.881744
 21
20.909343
  0
LINE
  8
1-1
  6
CONTINUOUS
 62
    7
 10
59.881744
 20
20.909343
 11
59.83816
 21
20.847714
  0
LINE
  8
1-1
  6
CONTINUOUS
 62
    7
 10
59.83816
 20
20.847714
 11
59.802807
 21
20.77632
  0
LINE
  8
1-1
  6
CONTINUOUS
 62
    7
 10
59.802807
 20
20.77632
 11
59.776758
 21
20.69733
  0
LINE
  8
1-1
  6
CONTINUOUS
 62
    7
 10
59.776758
 20
20.69733
 11
59.767255
 21
20.654524
  0
LINE
  8
1-1
  6
CONTINUOUS
 62
    7
 10
60.592248
 20
20.607745
 11
60.576949
 21
20.692173
  0
LINE
  8
1-1
  6
CONTINUOUS
 62
    7
 10
60.576949
 20
20.692173
 11
60.551513
 21
20.771562
  0
LINE
  8
1-1
  6
CONTINUOUS
 62
    7
 10
60.551513
 20
20.771562
 11
60.516715
 21
20.843499
  0
LINE
  8
1-1
  6
CONTINUOUS
 62
    7
 10
60.516715
 20
20.843499
 11
60.473612
 21
20.905799
  0
LINE
  8
1-1
  6
CONTINUOUS
 62
    7
 10
60.473612
 20
20.905799
 11
60.423512
 21
20.956569
  0
LINE
  8
1-1
  6
CONTINUOUS
 62
    7
 10
60.423512
 20
20.956569
 11
60.367939
 21
20.994265
  0
LINE
  8
1-1
  6
CONTINUOUS
 62
    7
 10
60.367939
 20
20.994265
 11
60.308581
 21
21.017744
  0
LINE
  8
1-1
  6
CONTINUOUS
 62
    7
 10
60.308581
 20
21.017744
 11
60.247242
 21
21.02629
  0
LINE
  8
1-1
  6
CONTINUOUS
 62
    7
 10
60.247242
 20
21.02629
 11
60.185785
 21
21.019646
  0
LINE
  8
1-1
  6
CONTINUOUS
 62
    7
 10
60.185785
 20
21.019646
 11
60.126077
 21
20.998012
  0
LINE
  8
1-1
  6
CONTINUOUS
 62
    7
 10
60.126077
 20
20.998012
 11
60.069934
 21
20.962046
  0
LINE
  8
1-1
  6
CONTINUOUS
 62
    7
 10
60.069934
 20
20.962046
 11
60.01906
 21
20.91284
  0
LINE
  8
1-1
  6
CONTINUOUS
 62
    7
 10
60.01906
 20
20.91284
 11
59.975001
 21
20.851891
  0
LINE
  8
1-1
  6
CONTINUOUS
 62
    7
 10
59.975001
 20
20.851891
 11
59.939097
 21
20.781049
  0
LINE
  8
1-1
  6
CONTINUOUS
 62
    7
 10
59.939097
 20
20.781049
 11
59.912438
 21
20.702467
  0
LINE
  8
1-1
  6
CONTINUOUS
 62
    7
 10
59.912438
 20
20.702467
 11
59.895834
 21
20.618533
  0
LINE
  8
1-1
  6
CONTINUOUS
 62
    7
 10
59.895834
 20
20.618533
 11
59.890275
 21
20.553068
  0
LINE
  8
1-1
  6
CONTINUOUS
 62
    7
 10
58.793841
 20
21.02632
 11
58.732439
 21
21.018724
  0
LINE
  8
1-1
  6
CONTINUOUS
 62
    7
 10
58.732439
 20
21.018724
 11
58.672903
 21
20.996167
  0
LINE
  8
1-1
  6
CONTINUOUS
 62
    7
 10
58.672903
 20
20.996167
 11
58.617041
 21
20.959333
  0
LINE
  8
1-1
  6
CONTINUOUS
 62
    7
 10
58.617041
 20
20.959333
 11
58.566552
 21
20.909343
  0
LINE
  8
1-1
  6
CONTINUOUS
 62
    7
 10
58.566552
 20
20.909343
 11
58.522968
 21
20.847714
  0
LINE
  8
1-1
  6
CONTINUOUS
 62
    7
 10
58.522968
 20
20.847714
 11
58.487615
 21
20.77632
  0
LINE
  8
1-1
  6
CONTINUOUS
 62
    7
 10
58.487615
 20
20.77632
 11
58.461566
 21
20.69733
  0
LINE
  8
1-1
  6
CONTINUOUS
 62
    7
 10
58.461566
 20
20.69733
 11
58.452062
 21
20.654524
  0
LINE
  8
1-1
  6
CONTINUOUS
 62
    7
 10
58.928176
 20
21.02632
 11
58.866774
 21
21.018724
  0
LINE
  8
1-1
  6
CONTINUOUS
 62
    7
 10
58.866774
 20
21.018724
 11
58.807238
 21
20.996167
  0
LINE
  8
1-1
  6
CONTINUOUS
 62
    7
 10
58.807238
 20
20.996167
 11
58.751376
 21
20.959333
  0
LINE
  8
1-1
  6
CONTINUOUS
 62
    7
 10
58.751376
 20
20.959333
 11
58.700887
 21
20.909343
  0
LINE
  8
1-1
  6
CONTINUOUS
 62
    7
 10
58.700887
 20
20.909343
 11
58.657303
 21
20.847714
  0
LINE
  8
1-1
  6
CONTINUOUS
 62
    7
 10
58.657303
 20
20.847714
 11
58.62195
 21
20.77632
  0
LINE
  8
1-1
  6
CONTINUOUS
 62
    7
 10
58.62195
 20
20.77632
 11
58.595901
 21
20.69733
  0
LINE
  8
1-1
  6
CONTINUOUS
 62
    7
 10
58.595901
 20
20.69733
 11
58.586397
 21
20.654522
  0
LINE
  8
1-1
  6
CONTINUOUS
 62
    7
 10
62.56723
 20
16.320567
 11
62.622929
 21
16.283245
  0
LINE
  8
1-1
  6
CONTINUOUS
 62
    7
 10
62.622929
 20
16.283245
 11
62.682366
 21
16.260166
  0
LINE
  8
1-1
  6
CONTINUOUS
 62
    7
 10
62.682366
 20
16.260166
 11
62.743733
 21
16.252031
  0
LINE
  8
1-1
  6
CONTINUOUS
 62
    7
 10
62.743733
 20
16.252031
 11
62.745925
 21
16.252022
  0
LINE
  8
1-1
  6
CONTINUOUS
 62
    7
 10
62.552508
 20
16.947795
 11
62.534448
 21
16.864464
  0
LINE
  8
1-1
  6
CONTINUOUS
 62
    7
 10
62.534448
 20
16.864464
 11
62.526896
 21
16.777965
  0
LINE
  8
1-1
  6
CONTINUOUS
 62
    7
 10
62.526896
 20
16.777965
 11
62.530082
 21
16.690926
  0
LINE
  8
1-1
  6
CONTINUOUS
 62
    7
 10
62.530082
 20
16.690926
 11
62.543908
 21
16.605991
  0
LINE
  8
1-1
  6
CONTINUOUS
 62
    7
 10
62.543908
 20
16.605991
 11
62.567954
 21
16.525741
  0
LINE
  8
1-1
  6
CONTINUOUS
 62
    7
 10
62.567954
 20
16.525741
 11
62.601489
 21
16.452615
  0
LINE
  8
1-1
  6
CONTINUOUS
 62
    7
 10
62.601489
 20
16.452615
 11
62.643496
 21
16.388834
  0
LINE
  8
1-1
  6
CONTINUOUS
 62
    7
 10
62.643496
 20
16.388834
 11
62.692697
 21
16.336337
  0
LINE
  8
1-1
  6
CONTINUOUS
 62
    7
 10
62.692697
 20
16.336337
 11
62.747597
 21
16.296718
  0
LINE
  8
1-1
  6
CONTINUOUS
 62
    7
 10
62.747597
 20
16.296718
 11
62.806528
 21
16.271182
  0
LINE
  8
1-1
  6
CONTINUOUS
 62
    7
 10
62.806528
 20
16.271182
 11
62.867701
 21
16.260503
  0
LINE
  8
1-1
  6
CONTINUOUS
 62
    7
 10
62.867701
 20
16.260503
 11
62.880273
 21
16.260187
  0
LINE
  8
1-1
  6
CONTINUOUS
 62
    7
 10
58.93148
 20
20.226201
 11
58.962181
 21
20.229999
  0
LINE
  8
1-1
  6
CONTINUOUS
 62
    7
 10
58.962181
 20
20.229999
 11
58.991949
 21
20.241278
  0
LINE
  8
1-1
  6
CONTINUOUS
 62
    7
 10
58.991949
 20
20.241278
 11
59.01988
 21
20.259695
  0
LINE
  8
1-1
  6
CONTINUOUS
 62
    7
 10
59.01988
 20
20.259695
 11
59.045125
 21
20.28469
  0
LINE
  8
1-1
  6
CONTINUOUS
 62
    7
 10
59.045125
 20
20.28469
 11
59.066916
 21
20.315505
  0
LINE
  8
1-1
  6
CONTINUOUS
 62
    7
 10
59.066916
 20
20.315505
 11
59.084593
 21
20.351201
  0
LINE
  8
1-1
  6
CONTINUOUS
 62
    7
 10
59.084593
 20
20.351201
 11
59.097617
 21
20.390696
  0
LINE
  8
1-1
  6
CONTINUOUS
 62
    7
 10
59.097617
 20
20.390696
 11
59.105594
 21
20.432789
  0
LINE
  8
1-1
  6
CONTINUOUS
 62
    7
 10
59.105594
 20
20.432789
 11
59.10828
 21
20.476201
  0
LINE
  8
1-1
  6
CONTINUOUS
 62
    7
 10
59.10828
 20
20.476201
 11
59.105594
 21
20.519613
  0
LINE
  8
1-1
  6
CONTINUOUS
 62
    7
 10
59.105594
 20
20.519613
 11
59.097617
 21
20.561706
  0
LINE
  8
1-1
  6
CONTINUOUS
 62
    7
 10
59.097617
 20
20.561706
 11
59.084593
 21
20.601201
  0
LINE
  8
1-1
  6
CONTINUOUS
 62
    7
 10
59.084593
 20
20.601201
 11
59.066916
 21
20.636898
  0
LINE
  8
1-1
  6
CONTINUOUS
 62
    7
 10
59.066916
 20
20.636898
 11
59.045125
 21
20.667713
  0
LINE
  8
1-1
  6
CONTINUOUS
 62
    7
 10
59.045125
 20
20.667713
 11
59.01988
 21
20.692708
  0
LINE
  8
1-1
  6
CONTINUOUS
 62
    7
 10
59.01988
 20
20.692708
 11
58.991949
 21
20.711125
  0
LINE
  8
1-1
  6
CONTINUOUS
 62
    7
 10
58.991949
 20
20.711125
 11
58.962181
 21
20.722403
  0
LINE
  8
1-1
  6
CONTINUOUS
 62
    7
 10
58.962181
 20
20.722403
 11
58.93148
 21
20.726201
  0
LINE
  8
1-1
  6
CONTINUOUS
 62
    7
 10
58.93148
 20
20.726201
 11
58.900779
 21
20.722403
  0
LINE
  8
1-1
  6
CONTINUOUS
 62
    7
 10
58.900779
 20
20.722403
 11
58.87101
 21
20.711125
  0
LINE
  8
1-1
  6
CONTINUOUS
 62
    7
 10
58.87101
 20
20.711125
 11
58.84308
 21
20.692708
  0
LINE
  8
1-1
  6
CONTINUOUS
 62
    7
 10
58.84308
 20
20.692708
 11
58.817835
 21
20.667713
  0
LINE
  8
1-1
  6
CONTINUOUS
 62
    7
 10
58.817835
 20
20.667713
 11
58.796043
 21
20.636898
  0
LINE
  8
1-1
  6
CONTINUOUS
 62
    7
 10
58.796043
 20
20.636898
 11
58.778366
 21
20.601201
  0
LINE
  8
1-1
  6
CONTINUOUS
 62
    7
 10
58.778366
 20
20.601201
 11
58.765342
 21
20.561706
  0
LINE
  8
1-1
  6
CONTINUOUS
 62
    7
 10
58.765342
 20
20.561706
 11
58.757366
 21
20.519613
  0
LINE
  8
1-1
  6
CONTINUOUS
 62
    7
 10
58.757366
 20
20.519613
 11
58.75468
 21
20.476201
  0
LINE
  8
1-1
  6
CONTINUOUS
 62
    7
 10
58.75468
 20
20.476201
 11
58.757366
 21
20.432789
  0
LINE
  8
1-1
  6
CONTINUOUS
 62
    7
 10
58.757366
 20
20.432789
 11
58.765342
 21
20.390696
  0
LINE
  8
1-1
  6
CONTINUOUS
 62
    7
 10
58.765342
 20
20.390696
 11
58.778366
 21
20.351201
  0
LINE
  8
1-1
  6
CONTINUOUS
 62
    7
 10
58.778366
 20
20.351201
 11
58.796043
 21
20.315505
  0
LINE
  8
1-1
  6
CONTINUOUS
 62
    7
 10
58.796043
 20
20.315505
 11
58.817835
 21
20.28469
  0
LINE
  8
1-1
  6
CONTINUOUS
 62
    7
 10
58.817835
 20
20.28469
 11
58.84308
 21
20.259695
  0
LINE
  8
1-1
  6
CONTINUOUS
 62
    7
 10
58.84308
 20
20.259695
 11
58.87101
 21
20.241278
  0
LINE
  8
1-1
  6
CONTINUOUS
 62
    7
 10
58.87101
 20
20.241278
 11
58.900779
 21
20.229999
  0
LINE
  8
1-1
  6
CONTINUOUS
 62
    7
 10
58.900779
 20
20.229999
 11
58.93148
 21
20.226201
  0
LINE
  8
1-1
  6
CONTINUOUS
 62
    7
 10
59.14361
 20
20.245019
 11
59.174311
 21
20.248817
  0
LINE
  8
1-1
  6
CONTINUOUS
 62
    7
 10
59.174311
 20
20.248817
 11
59.204079
 21
20.260096
  0
LINE
  8
1-1
  6
CONTINUOUS
 62
    7
 10
59.204079
 20
20.260096
 11
59.23201
 21
20.278513
  0
LINE
  8
1-1
  6
CONTINUOUS
 62
    7
 10
59.23201
 20
20.278513
 11
59.257255
 21
20.303508
  0
LINE
  8
1-1
  6
CONTINUOUS
 62
    7
 10
59.257255
 20
20.303508
 11
59.279046
 21
20.334322
  0
LINE
  8
1-1
  6
CONTINUOUS
 62
    7
 10
59.279046
 20
20.334322
 11
59.296723
 21
20.370019
  0
LINE
  8
1-1
  6
CONTINUOUS
 62
    7
 10
59.296723
 20
20.370019
 11
59.309747
 21
20.409514
  0
LINE
  8
1-1
  6
CONTINUOUS
 62
    7
 10
59.309747
 20
20.409514
 11
59.317724
 21
20.451607
  0
LINE
  8
1-1
  6
CONTINUOUS
 62
    7
 10
59.317724
 20
20.451607
 11
59.32041
 21
20.495019
  0
LINE
  8
1-1
  6
CONTINUOUS
 62
    7
 10
59.32041
 20
20.495019
 11
59.317724
 21
20.538431
  0
LINE
  8
1-1
  6
CONTINUOUS
 62
    7
 10
59.317724
 20
20.538431
 11
59.309747
 21
20.580524
  0
LINE
  8
1-1
  6
CONTINUOUS
 62
    7
 10
59.309747
 20
20.580524
 11
59.296723
 21
20.620019
  0
LINE
  8
1-1
  6
CONTINUOUS
 62
    7
 10
59.296723
 20
20.620019
 11
59.279046
 21
20.655716
  0
LINE
  8
1-1
  6
CONTINUOUS
 62
    7
 10
59.279046
 20
20.655716
 11
59.257255
 21
20.68653
  0
LINE
  8
1-1
  6
CONTINUOUS
 62
    7
 10
59.257255
 20
20.68653
 11
59.23201
 21
20.711526
  0
LINE
  8
1-1
  6
CONTINUOUS
 62
    7
 10
59.23201
 20
20.711526
 11
59.204079
 21
20.729942
  0
LINE
  8
1-1
  6
CONTINUOUS
 62
    7
 10
59.204079
 20
20.729942
 11
59.174311
 21
20.741221
  0
LINE
  8
1-1
  6
CONTINUOUS
 62
    7
 10
59.174311
 20
20.741221
 11
59.14361
 21
20.745019
  0
LINE
  8
1-1
  6
CONTINUOUS
 62
    7
 10
61.780489
 20
20.478899
 11
61.81119
 21
20.482697
  0
LINE
  8
1-1
  6
CONTINUOUS
 62
    7
 10
61.81119
 20
20.482697
 11
61.840959
 21
20.493976
  0
LINE
  8
1-1
  6
CONTINUOUS
 62
    7
 10
61.840959
 20
20.493976
 11
61.868889
 21
20.512393
  0
LINE
  8
1-1
  6
CONTINUOUS
 62
    7
 10
61.868889
 20
20.512393
 11
61.894134
 21
20.537388
  0
LINE
  8
1-1
  6
CONTINUOUS
 62
    7
 10
61.894134
 20
20.537388
 11
61.915926
 21
20.568202
  0
LINE
  8
1-1
  6
CONTINUOUS
 62
    7
 10
61.915926
 20
20.568202
 11
61.933603
 21
20.603899
  0
LINE
  8
1-1
  6
CONTINUOUS
 62
    7
 10
61.933603
 20
20.603899
 11
61.946627
 21
20.643394
  0
LINE
  8
1-1
  6
CONTINUOUS
 62
    7
 10
61.946627
 20
20.643394
 11
61.954603
 21
20.685487
  0
LINE
  8
1-1
  6
CONTINUOUS
 62
    7
 10
61.954603
 20
20.685487
 11
61.957289
 21
20.728899
  0
LINE
  8
1-1
  6
CONTINUOUS
 62
    7
 10
61.957289
 20
20.728899
 11
61.954603
 21
20.772311
  0
LINE
  8
1-1
  6
CONTINUOUS
 62
    7
 10
61.954603
 20
20.772311
 11
61.946627
 21
20.814404
  0
LINE
  8
1-1
  6
CONTINUOUS
 62
    7
 10
61.946627
 20
20.814404
 11
61.933603
 21
20.853899
  0
LINE
  8
1-1
  6
CONTINUOUS
 62
    7
 10
61.933603
 20
20.853899
 11
61.915926
 21
20.889596
  0
LINE
  8
1-1
  6
CONTINUOUS
 62
    7
 10
61.915926
 20
20.889596
 11
61.894134
 21
20.92041
  0
LINE
  8
1-1
  6
CONTINUOUS
 62
    7
 10
61.894134
 20
20.92041
 11
61.868889
 21
20.945406
  0
LINE
  8
1-1
  6
CONTINUOUS
 62
    7
 10
61.868889
 20
20.945406
 11
61.840959
 21
20.963822
  0
LINE
  8
1-1
  6
CONTINUOUS
 62
    7
 10
61.840959
 20
20.963822
 11
61.81119
 21
20.975101
  0
LINE
  8
1-1
  6
CONTINUOUS
 62
    7
 10
61.81119
 20
20.975101
 11
61.780489
 21
20.978899
  0
LINE
  8
1-1
  6
CONTINUOUS
 62
    7
 10
61.780489
 20
20.978899
 11
61.769423
 21
20.978409
  0
LINE
  8
1-1
  6
CONTINUOUS
 62
    7
 10
61.415813
 20
21.260188
 11
61.354411
 21
21.252592
  0
LINE
  8
1-1
  6
CONTINUOUS
 62
    7
 10
61.354411
 20
21.252592
 11
61.294874
 21
21.230034
  0
LINE
  8
1-1
  6
CONTINUOUS
 62
    7
 10
61.294874
 20
21.230034
 11
61.239013
 21
21.193201
  0
LINE
  8
1-1
  6
CONTINUOUS
 62
    7
 10
61.239013
 20
21.193201
 11
61.188523
 21
21.14321
  0
LINE
  8
1-1
  6
CONTINUOUS
 62
    7
 10
61.188523
 20
21.14321
 11
61.144939
 21
21.081582
  0
LINE
  8
1-1
  6
CONTINUOUS
 62
    7
 10
61.144939
 20
21.081582
 11
61.109586
 21
21.010188
  0
LINE
  8
1-1
  6
CONTINUOUS
 62
    7
 10
61.109586
 20
21.010188
 11
61.083537
 21
20.931198
  0
LINE
  8
1-1
  6
CONTINUOUS
 62
    7
 10
61.083537
 20
20.931198
 11
61.080117
 21
20.917275
  0
LINE
  8
1-1
  6
CONTINUOUS
 62
    7
 10
61.352183
 20
21.260188
 11
61.290781
 21
21.252592
  0
LINE
  8
1-1
  6
CONTINUOUS
 62
    7
 10
61.290781
 20
21.252592
 11
61.231245
 21
21.230034
  0
LINE
  8
1-1
  6
CONTINUOUS
 62
    7
 10
61.231245
 20
21.230034
 11
61.175383
 21
21.193201
  0
LINE
  8
1-1
  6
CONTINUOUS
 62
    7
 10
61.175383
 20
21.193201
 11
61.124894
 21
21.14321
  0
LINE
  8
1-1
  6
CONTINUOUS
 62
    7
 10
61.124894
 20
21.14321
 11
61.08131
 21
21.081582
  0
LINE
  8
1-1
  6
CONTINUOUS
 62
    7
 10
61.08131
 20
21.081582
 11
61.045957
 21
21.010188
  0
LINE
  8
1-1
  6
CONTINUOUS
 62
    7
 10
61.045957
 20
21.010188
 11
61.019908
 21
20.931198
  0
LINE
  8
1-1
  6
CONTINUOUS
 62
    7
 10
61.019908
 20
20.931198
 11
61.015166
 21
20.911509
  0
LINE
  8
1-1
  6
CONTINUOUS
 62
    7
 10
61.370401
 20
21.001801
 11
61.34142
 21
20.98698
  0
LINE
  8
1-1
  6
CONTINUOUS
 62
    7
 10
61.34142
 20
20.98698
 11
61.314699
 21
20.965268
  0
LINE
  8
1-1
  6
CONTINUOUS
 62
    7
 10
61.314699
 20
20.965268
 11
61.291051
 21
20.937324
  0
LINE
  8
1-1
  6
CONTINUOUS
 62
    7
 10
61.291051
 20
20.937324
 11
61.290045
 21
20.935896
  0
LINE
  8
1-1
  6
CONTINUOUS
 62
    7
 10
60.345895
 20
20.27632
 11
60.376596
 21
20.280118
  0
LINE
  8
1-1
  6
CONTINUOUS
 62
    7
 10
60.376596
 20
20.280118
 11
60.406364
 21
20.291397
  0
LINE
  8
1-1
  6
CONTINUOUS
 62
    7
 10
60.406364
 20
20.291397
 11
60.434295
 21
20.309814
  0
LINE
  8
1-1
  6
CONTINUOUS
 62
    7
 10
60.434295
 20
20.309814
 11
60.45954
 21
20.334809
  0
LINE
  8
1-1
  6
CONTINUOUS
 62
    7
 10
60.45954
 20
20.334809
 11
60.481332
 21
20.365623
  0
LINE
  8
1-1
  6
CONTINUOUS
 62
    7
 10
60.481332
 20
20.365623
 11
60.499008
 21
20.40132
  0
LINE
  8
1-1
  6
CONTINUOUS
 62
    7
 10
60.499008
 20
20.40132
 11
60.512033
 21
20.440815
  0
LINE
  8
1-1
  6
CONTINUOUS
 62
    7
 10
60.512033
 20
20.440815
 11
60.520009
 21
20.482908
  0
LINE
  8
1-1
  6
CONTINUOUS
 62
    7
 10
60.520009
 20
20.482908
 11
60.522695
 21
20.52632
  0
LINE
  8
1-1
  6
CONTINUOUS
 62
    7
 10
60.522695
 20
20.52632
 11
60.520009
 21
20.569732
  0
LINE
  8
1-1
  6
CONTINUOUS
 62
    7
 10
60.520009
 20
20.569732
 11
60.512033
 21
20.611825
  0
LINE
  8
1-1
  6
CONTINUOUS
 62
    7
 10
60.512033
 20
20.611825
 11
60.499008
 21
20.65132
  0
LINE
  8
1-1
  6
CONTINUOUS
 62
    7
 10
60.499008
 20
20.65132
 11
60.481332
 21
20.687017
  0
LINE
  8
1-1
  6
CONTINUOUS
 62
    7
 10
60.481332
 20
20.687017
 11
60.45954
 21
20.717831
  0
LINE
  8
1-1
  6
CONTINUOUS
 62
    7
 10
60.45954
 20
20.717831
 11
60.434295
 21
20.742827
  0
LINE
  8
1-1
  6
CONTINUOUS
 62
    7
 10
60.434295
 20
20.742827
 11
60.406364
 21
20.761243
  0
LINE
  8
1-1
  6
CONTINUOUS
 62
    7
 10
60.406364
 20
20.761243
 11
60.376596
 21
20.772522
  0
LINE
  8
1-1
  6
CONTINUOUS
 62
    7
 10
60.376596
 20
20.772522
 11
60.345895
 21
20.77632
  0
LINE
  8
1-1
  6
CONTINUOUS
 62
    7
 10
60.345895
 20
20.77632
 11
60.315194
 21
20.772522
  0
LINE
  8
1-1
  6
CONTINUOUS
 62
    7
 10
60.315194
 20
20.772522
 11
60.285426
 21
20.761243
  0
LINE
  8
1-1
  6
CONTINUOUS
 62
    7
 10
60.285426
 20
20.761243
 11
60.257495
 21
20.742827
  0
LINE
  8
1-1
  6
CONTINUOUS
 62
    7
 10
60.257495
 20
20.742827
 11
60.23225
 21
20.717831
  0
LINE
  8
1-1
  6
CONTINUOUS
 62
    7
 10
60.23225
 20
20.717831
 11
60.210458
 21
20.687017
  0
LINE
  8
1-1
  6
CONTINUOUS
 62
    7
 10
60.210458
 20
20.687017
 11
60.192782
 21
20.65132
  0
LINE
  8
1-1
  6
CONTINUOUS
 62
    7
 10
60.192782
 20
20.65132
 11
60.179757
 21
20.611825
  0
LINE
  8
1-1
  6
CONTINUOUS
 62
    7
 10
60.179757
 20
20.611825
 11
60.171781
 21
20.569732
  0
LINE
  8
1-1
  6
CONTINUOUS
 62
    7
 10
60.171781
 20
20.569732
 11
60.169095
 21
20.52632
  0
LINE
  8
1-1
  6
CONTINUOUS
 62
    7
 10
60.169095
 20
20.52632
 11
60.171781
 21
20.482908
  0
LINE
  8
1-1
  6
CONTINUOUS
 62
    7
 10
60.171781
 20
20.482908
 11
60.179757
 21
20.440815
  0
LINE
  8
1-1
  6
CONTINUOUS
 62
    7
 10
60.179757
 20
20.440815
 11
60.192782
 21
20.40132
  0
LINE
  8
1-1
  6
CONTINUOUS
 62
    7
 10
60.192782
 20
20.40132
 11
60.210458
 21
20.365623
  0
LINE
  8
1-1
  6
CONTINUOUS
 62
    7
 10
60.210458
 20
20.365623
 11
60.23225
 21
20.334809
  0
LINE
  8
1-1
  6
CONTINUOUS
 62
    7
 10
60.23225
 20
20.334809
 11
60.257495
 21
20.309814
  0
LINE
  8
1-1
  6
CONTINUOUS
 62
    7
 10
60.257495
 20
20.309814
 11
60.285426
 21
20.291397
  0
LINE
  8
1-1
  6
CONTINUOUS
 62
    7
 10
60.285426
 20
20.291397
 11
60.315194
 21
20.280118
  0
LINE
  8
1-1
  6
CONTINUOUS
 62
    7
 10
60.315194
 20
20.280118
 11
60.345895
 21
20.27632
  0
LINE
  8
1-1
  6
CONTINUOUS
 62
    7
 10
60.243368
 20
20.77632
 11
60.212667
 21
20.772522
  0
LINE
  8
1-1
  6
CONTINUOUS
 62
    7
 10
60.212667
 20
20.772522
 11
60.182899
 21
20.761243
  0
LINE
  8
1-1
  6
CONTINUOUS
 62
    7
 10
60.182899
 20
20.761243
 11
60.154968
 21
20.742827
  0
LINE
  8
1-1
  6
CONTINUOUS
 62
    7
 10
60.154968
 20
20.742827
 11
60.129724
 21
20.717831
  0
LINE
  8
1-1
  6
CONTINUOUS
 62
    7
 10
60.129724
 20
20.717831
 11
60.107932
 21
20.687017
  0
LINE
  8
1-1
  6
CONTINUOUS
 62
    7
 10
60.107932
 20
20.687017
 11
60.090255
 21
20.65132
  0
LINE
  8
1-1
  6
CONTINUOUS
 62
    7
 10
60.090255
 20
20.65132
 11
60.077231
 21
20.611825
  0
LINE
  8
1-1
  6
CONTINUOUS
 62
    7
 10
60.077231
 20
20.611825
 11
60.069254
 21
20.569732
  0
LINE
  8
1-1
  6
CONTINUOUS
 62
    7
 10
60.069254
 20
20.569732
 11
60.066568
 21
20.52632
  0
LINE
  8
1-1
  6
CONTINUOUS
 62
    7
 10
60.066568
 20
20.52632
 11
60.069254
 21
20.482908
  0
LINE
  8
1-1
  6
CONTINUOUS
 62
    7
 10
60.069254
 20
20.482908
 11
60.077231
 21
20.440815
  0
LINE
  8
1-1
  6
CONTINUOUS
 62
    7
 10
60.077231
 20
20.440815
 11
60.090255
 21
20.40132
  0
LINE
  8
1-1
  6
CONTINUOUS
 62
    7
 10
60.090255
 20
20.40132
 11
60.107932
 21
20.365623
  0
LINE
  8
1-1
  6
CONTINUOUS
 62
    7
 10
60.107932
 20
20.365623
 11
60.129724
 21
20.334809
  0
LINE
  8
1-1
  6
CONTINUOUS
 62
    7
 10
60.129724
 20
20.334809
 11
60.154968
 21
20.309814
  0
LINE
  8
1-1
  6
CONTINUOUS
 62
    7
 10
60.154968
 20
20.309814
 11
60.182899
 21
20.291397
  0
LINE
  8
1-1
  6
CONTINUOUS
 62
    7
 10
60.182899
 20
20.291397
 11
60.212667
 21
20.280118
  0
LINE
  8
1-1
  6
CONTINUOUS
 62
    7
 10
60.212667
 20
20.280118
 11
60.243368
 21
20.27632
  0
LINE
  8
1-1
  6
CONTINUOUS
 62
    7
 10
59.793002
 20
20.750593
 11
59.766647
 21
20.728004
  0
LINE
  8
1-1
  6
CONTINUOUS
 62
    7
 10
59.766647
 20
20.728004
 11
59.743466
 21
20.699288
  0
LINE
  8
1-1
  6
CONTINUOUS
 62
    7
 10
59.743466
 20
20.699288
 11
59.724165
 21
20.665315
  0
LINE
  8
1-1
  6
CONTINUOUS
 62
    7
 10
59.724165
 20
20.665315
 11
59.709328
 21
20.62712
  0
LINE
  8
1-1
  6
CONTINUOUS
 62
    7
 10
59.709328
 20
20.62712
 11
59.699407
 21
20.585862
  0
LINE
  8
1-1
  6
CONTINUOUS
 62
    7
 10
59.699407
 20
20.585862
 11
59.694704
 21
20.542794
  0
LINE
  8
1-1
  6
CONTINUOUS
 62
    7
 10
59.694704
 20
20.542794
 11
59.695361
 21
20.499226
  0
LINE
  8
1-1
  6
CONTINUOUS
 62
    7
 10
59.695361
 20
20.499226
 11
59.701359
 21
20.456481
  0
LINE
  8
1-1
  6
CONTINUOUS
 62
    7
 10
59.701359
 20
20.456481
 11
59.712514
 21
20.415859
  0
LINE
  8
1-1
  6
CONTINUOUS
 62
    7
 10
59.712514
 20
20.415859
 11
59.719199
 21
20.398444
  0
LINE
  8
1-1
  6
CONTINUOUS
 62
    7
 10
43.774992
 20
14.569988
 11
43.739502
 21
14.555331
  0
LINE
  8
1-1
  6
CONTINUOUS
 62
    7
 10
43.739502
 20
14.555331
 11
43.706352
 21
14.53218
  0
LINE
  8
1-1
  6
CONTINUOUS
 62
    7
 10
43.706352
 20
14.53218
 11
43.676547
 21
14.501238
  0
LINE
  8
1-1
  6
CONTINUOUS
 62
    7
 10
43.676547
 20
14.501238
 11
43.650993
 21
14.463446
  0
LINE
  8
1-1
  6
CONTINUOUS
 62
    7
 10
43.650993
 20
14.463446
 11
43.630467
 21
14.419951
  0
LINE
  8
1-1
  6
CONTINUOUS
 62
    7
 10
43.630467
 20
14.419951
 11
43.615593
 21
14.372077
  0
LINE
  8
1-1
  6
CONTINUOUS
 62
    7
 10
43.615593
 20
14.372077
 11
43.606823
 21
14.321276
  0
LINE
  8
1-1
  6
CONTINUOUS
 62
    7
 10
43.606823
 20
14.321276
 11
43.604422
 21
14.269093
  0
LINE
  8
1-1
  6
CONTINUOUS
 62
    7
 10
43.604422
 20
14.269093
 11
43.604833
 21
14.255957
  0
LINE
  8
1-1
  6
CONTINUOUS
 62
    7
 10
42.537545
 20
14.569988
 11
42.502056
 21
14.555331
  0
LINE
  8
1-1
  6
CONTINUOUS
 62
    7
 10
42.502056
 20
14.555331
 11
42.468905
 21
14.53218
  0
LINE
  8
1-1
  6
CONTINUOUS
 62
    7
 10
42.468905
 20
14.53218
 11
42.4391
 21
14.501238
  0
LINE
  8
1-1
  6
CONTINUOUS
 62
    7
 10
42.4391
 20
14.501238
 11
42.413546
 21
14.463446
  0
LINE
  8
1-1
  6
CONTINUOUS
 62
    7
 10
42.413546
 20
14.463446
 11
42.393021
 21
14.419951
  0
LINE
  8
1-1
  6
CONTINUOUS
 62
    7
 10
42.393021
 20
14.419951
 11
42.378147
 21
14.372077
  0
LINE
  8
1-1
  6
CONTINUOUS
 62
    7
 10
42.378147
 20
14.372077
 11
42.369376
 21
14.321276
  0
LINE
  8
1-1
  6
CONTINUOUS
 62
    7
 10
42.369376
 20
14.321276
 11
42.366976
 21
14.269093
  0
LINE
  8
1-1
  6
CONTINUOUS
 62
    7
 10
42.366976
 20
14.269093
 11
42.367387
 21
14.255957
  0
LINE
  8
1-1
  6
CONTINUOUS
 62
    7
 10
42.455537
 20
13.733164
 11
42.452136
 21
13.646141
  0
LINE
  8
1-1
  6
CONTINUOUS
 62
    7
 10
42.452136
 20
13.646141
 11
42.459473
 21
13.559605
  0
LINE
  8
1-1
  6
CONTINUOUS
 62
    7
 10
42.459473
 20
13.559605
 11
42.477326
 21
13.476185
  0
LINE
  8
1-1
  6
CONTINUOUS
 62
    7
 10
42.477326
 20
13.476185
 11
42.505152
 21
13.398416
  0
LINE
  8
1-1
  6
CONTINUOUS
 62
    7
 10
42.505152
 20
13.398416
 11
42.542105
 21
13.328661
  0
LINE
  8
1-1
  6
CONTINUOUS
 62
    7
 10
42.542105
 20
13.328661
 11
42.587063
 21
13.26904
  0
LINE
  8
1-1
  6
CONTINUOUS
 62
    7
 10
42.587063
 20
13.26904
 11
42.63866
 21
13.221363
  0
LINE
  8
1-1
  6
CONTINUOUS
 62
    7
 10
42.63866
 20
13.221363
 11
42.695328
 21
13.18708
  0
LINE
  8
1-1
  6
CONTINUOUS
 62
    7
 10
42.695328
 20
13.18708
 11
42.755345
 21
13.167233
  0
LINE
  8
1-1
  6
CONTINUOUS
 62
    7
 10
42.755345
 20
13.167233
 11
42.816888
 21
13.162423
  0
LINE
  8
1-1
  6
CONTINUOUS
 62
    7
 10
42.816888
 20
13.162423
 11
42.878086
 21
13.172798
  0
LINE
  8
1-1
  6
CONTINUOUS
 62
    7
 10
42.878086
 20
13.172798
 11
42.93708
 21
13.198043
  0
LINE
  8
1-1
  6
CONTINUOUS
 62
    7
 10
42.93708
 20
13.198043
 11
42.992079
 21
13.237389
  0
LINE
  8
1-1
  6
CONTINUOUS
 62
    7
 10
42.992079
 20
13.237389
 11
43.041409
 21
13.289642
  0
LINE
  8
1-1
  6
CONTINUOUS
 62
    7
 10
43.041409
 20
13.289642
 11
43.083573
 21
13.353214
  0
LINE
  8
1-1
  6
CONTINUOUS
 62
    7
 10
43.083573
 20
13.353214
 11
43.11729
 21
13.426174
  0
LINE
  8
1-1
  6
CONTINUOUS
 62
    7
 10
43.11729
 20
13.426174
 11
43.129634
 21
13.462166
  0
LINE
  8
1-1
  6
CONTINUOUS
 62
    7
 10
42.370641
 20
13.733164
 11
42.367239
 21
13.646141
  0
LINE
  8
1-1
  6
CONTINUOUS
 62
    7
 10
42.367239
 20
13.646141
 11
42.374577
 21
13.559605
  0
LINE
  8
1-1
  6
CONTINUOUS
 62
    7
 10
42.374577
 20
13.559605
 11
42.392429
 21
13.476185
  0
LINE
  8
1-1
  6
CONTINUOUS
 62
    7
 10
42.392429
 20
13.476185
 11
42.420255
 21
13.398416
  0
LINE
  8
1-1
  6
CONTINUOUS
 62
    7
 10
42.420255
 20
13.398416
 11
42.457209
 21
13.328661
  0
LINE
  8
1-1
  6
CONTINUOUS
 62
    7
 10
42.457209
 20
13.328661
 11
42.502167
 21
13.26904
  0
LINE
  8
1-1
  6
CONTINUOUS
 62
    7
 10
42.502167
 20
13.26904
 11
42.553764
 21
13.221363
  0
LINE
  8
1-1
  6
CONTINUOUS
 62
    7
 10
42.553764
 20
13.221363
 11
42.610431
 21
13.18708
  0
LINE
  8
1-1
  6
CONTINUOUS
 62
    7
 10
42.610431
 20
13.18708
 11
42.670449
 21
13.167233
  0
LINE
  8
1-1
  6
CONTINUOUS
 62
    7
 10
42.670449
 20
13.167233
 11
42.720658
 21
13.162167
  0
LINE
  8
1-1
  6
CONTINUOUS
 62
    7
 10
42.36706
 20
13.926631
 11
42.339426
 21
13.848928
  0
LINE
  8
1-1
  6
CONTINUOUS
 62
    7
 10
42.339426
 20
13.848928
 11
42.338452
 21
13.845438
  0
LINE
  8
1-1
  6
CONTINUOUS
 62
    7
 10
43.608075
 20
13.733164
 11
43.604674
 21
13.646141
  0
LINE
  8
1-1
  6
CONTINUOUS
 62
    7
 10
43.604674
 20
13.646141
 11
43.612011
 21
13.559605
  0
LINE
  8
1-1
  6
CONTINUOUS
 62
    7
 10
43.612011
 20
13.559605
 11
43.629864
 21
13.476185
  0
LINE
  8
1-1
  6
CONTINUOUS
 62
    7
 10
43.629864
 20
13.476185
 11
43.636383
 21
13.454654
  0
LINE
  8
1-1
  6
CONTINUOUS
 62
    7
 10
43.523172
 20
13.733164
 11
43.519771
 21
13.646141
  0
LINE
  8
1-1
  6
CONTINUOUS
 62
    7
 10
43.519771
 20
13.646141
 11
43.527108
 21
13.559605
  0
LINE
  8
1-1
  6
CONTINUOUS
 62
    7
 10
43.527108
 20
13.559605
 11
43.544961
 21
13.476185
  0
LINE
  8
1-1
  6
CONTINUOUS
 62
    7
 10
43.544961
 20
13.476185
 11
43.572787
 21
13.398416
  0
LINE
  8
1-1
  6
CONTINUOUS
 62
    7
 10
43.572787
 20
13.398416
 11
43.60974
 21
13.328661
  0
LINE
  8
1-1
  6
CONTINUOUS
 62
    7
 10
43.60974
 20
13.328661
 11
43.636383
 21
13.290851
  0
LINE
  8
1-1
  6
CONTINUOUS
 62
    7
 10
68.792405
 20
16.782409
 11
68.792351
 21
16.738831
  0
LINE
  8
1-1
  6
CONTINUOUS
 62
    7
 10
68.792351
 20
16.738831
 11
68.797649
 21
16.695902
  0
LINE
  8
1-1
  6
CONTINUOUS
 62
    7
 10
68.797649
 20
16.695902
 11
68.808136
 21
16.654926
  0
LINE
  8
1-1
  6
CONTINUOUS
 62
    7
 10
68.808136
 20
16.654926
 11
68.823494
 21
16.617149
  0
LINE
  8
1-1
  6
CONTINUOUS
 62
    7
 10
68.823494
 20
16.617149
 11
68.843257
 21
16.583718
  0
LINE
  8
1-1
  6
CONTINUOUS
 62
    7
 10
68.843257
 20
16.583718
 11
68.866824
 21
16.555649
  0
LINE
  8
1-1
  6
CONTINUOUS
 62
    7
 10
68.866824
 20
16.555649
 11
68.893479
 21
16.533794
  0
LINE
  8
1-1
  6
CONTINUOUS
 62
    7
 10
68.893479
 20
16.533794
 11
68.922413
 21
16.518819
  0
LINE
  8
1-1
  6
CONTINUOUS
 62
    7
 10
68.922413
 20
16.518819
 11
68.952745
 21
16.511177
  0
LINE
  8
1-1
  6
CONTINUOUS
 62
    7
 10
68.952745
 20
16.511177
 11
68.983554
 21
16.511101
  0
LINE
  8
1-1
  6
CONTINUOUS
 62
    7
 10
68.983554
 20
16.511101
 11
69.013905
 21
16.518594
  0
LINE
  8
1-1
  6
CONTINUOUS
 62
    7
 10
69.013905
 20
16.518594
 11
69.042875
 21
16.533427
  0
LINE
  8
1-1
  6
CONTINUOUS
 62
    7
 10
69.042875
 20
16.533427
 11
69.069583
 21
16.555151
  0
LINE
  8
1-1
  6
CONTINUOUS
 62
    7
 10
69.069583
 20
16.555151
 11
69.093219
 21
16.583104
  0
LINE
  8
1-1
  6
CONTINUOUS
 62
    7
 10
69.093219
 20
16.583104
 11
69.113064
 21
16.616438
  0
LINE
  8
1-1
  6
CONTINUOUS
 62
    7
 10
69.113064
 20
16.616438
 11
69.128515
 21
16.654139
  0
LINE
  8
1-1
  6
CONTINUOUS
 62
    7
 10
69.128515
 20
16.654139
 11
69.139103
 21
16.695063
  0
LINE
  8
1-1
  6
CONTINUOUS
 62
    7
 10
69.139103
 20
16.695063
 11
69.144506
 21
16.737966
  0
LINE
  8
1-1
  6
CONTINUOUS
 62
    7
 10
69.144506
 20
16.737966
 11
69.144559
 21
16.781544
  0
LINE
  8
1-1
  6
CONTINUOUS
 62
    7
 10
69.144559
 20
16.781544
 11
69.139262
 21
16.824473
  0
LINE
  8
1-1
  6
CONTINUOUS
 62
    7
 10
69.139262
 20
16.824473
 11
69.128775
 21
16.865448
  0
LINE
  8
1-1
  6
CONTINUOUS
 62
    7
 10
69.128775
 20
16.865448
 11
69.113416
 21
16.903226
  0
LINE
  8
1-1
  6
CONTINUOUS
 62
    7
 10
69.113416
 20
16.903226
 11
69.093653
 21
16.936657
  0
LINE
  8
1-1
  6
CONTINUOUS
 62
    7
 10
69.093653
 20
16.936657
 11
69.070086
 21
16.964726
  0
LINE
  8
1-1
  6
CONTINUOUS
 62
    7
 10
69.070086
 20
16.964726
 11
69.043431
 21
16.98658
  0
LINE
  8
1-1
  6
CONTINUOUS
 62
    7
 10
69.043431
 20
16.98658
 11
69.014498
 21
17.001556
  0
LINE
  8
1-1
  6
CONTINUOUS
 62
    7
 10
69.014498
 20
17.001556
 11
68.984166
 21
17.009198
  0
LINE
  8
1-1
  6
CONTINUOUS
 62
    7
 10
68.984166
 20
17.009198
 11
68.953356
 21
17.009273
  0
LINE
  8
1-1
  6
CONTINUOUS
 62
    7
 10
68.953356
 20
17.009273
 11
68.923006
 21
17.001781
  0
LINE
  8
1-1
  6
CONTINUOUS
 62
    7
 10
68.923006
 20
17.001781
 11
68.894036
 21
16.986947
  0
LINE
  8
1-1
  6
CONTINUOUS
 62
    7
 10
68.894036
 20
16.986947
 11
68.867327
 21
16.965224
  0
LINE
  8
1-1
  6
CONTINUOUS
 62
    7
 10
68.867327
 20
16.965224
 11
68.843691
 21
16.937271
  0
LINE
  8
1-1
  6
CONTINUOUS
 62
    7
 10
68.843691
 20
16.937271
 11
68.823846
 21
16.903937
  0
LINE
  8
1-1
  6
CONTINUOUS
 62
    7
 10
68.823846
 20
16.903937
 11
68.808395
 21
16.866235
  0
LINE
  8
1-1
  6
CONTINUOUS
 62
    7
 10
68.808395
 20
16.866235
 11
68.797808
 21
16.825311
  0
LINE
  8
1-1
  6
CONTINUOUS
 62
    7
 10
68.797808
 20
16.825311
 11
68.792405
 21
16.782409
  0
LINE
  8
1-1
  6
CONTINUOUS
 62
    7
 10
87.717898
 20
13.462167
 11
87.742209
 21
13.465205
  0
LINE
  8
1-1
  6
CONTINUOUS
 62
    7
 10
87.742209
 20
13.465205
 11
87.765781
 21
13.474228
  0
LINE
  8
1-1
  6
CONTINUOUS
 62
    7
 10
87.765781
 20
13.474228
 11
87.787898
 21
13.488961
  0
LINE
  8
1-1
  6
CONTINUOUS
 62
    7
 10
87.787898
 20
13.488961
 11
87.807889
 21
13.508958
  0
LINE
  8
1-1
  6
CONTINUOUS
 62
    7
 10
87.807889
 20
13.508958
 11
87.825145
 21
13.533609
  0
LINE
  8
1-1
  6
CONTINUOUS
 62
    7
 10
87.825145
 20
13.533609
 11
87.839142
 21
13.562167
  0
LINE
  8
1-1
  6
CONTINUOUS
 62
    7
 10
87.839142
 20
13.562167
 11
87.849455
 21
13.593762
  0
LINE
  8
1-1
  6
CONTINUOUS
 62
    7
 10
87.849455
 20
13.593762
 11
87.855772
 21
13.627437
  0
LINE
  8
1-1
  6
CONTINUOUS
 62
    7
 10
87.855772
 20
13.627437
 11
87.857898
 21
13.662167
  0
LINE
  8
1-1
  6
CONTINUOUS
 62
    7
 10
87.857898
 20
13.662167
 11
87.855772
 21
13.696896
  0
LINE
  8
1-1
  6
CONTINUOUS
 62
    7
 10
87.855772
 20
13.696896
 11
87.849455
 21
13.730571
  0
LINE
  8
1-1
  6
CONTINUOUS
 62
    7
 10
87.849455
 20
13.730571
 11
87.839142
 21
13.762167
  0
LINE
  8
1-1
  6
CONTINUOUS
 62
    7
 10
87.839142
 20
13.762167
 11
87.825145
 21
13.790724
  0
LINE
  8
1-1
  6
CONTINUOUS
 62
    7
 10
87.825145
 20
13.790724
 11
87.807889
 21
13.815375
  0
LINE
  8
1-1
  6
CONTINUOUS
 62
    7
 10
87.807889
 20
13.815375
 11
87.787898
 21
13.835372
  0
LINE
  8
1-1
  6
CONTINUOUS
 62
    7
 10
87.787898
 20
13.835372
 11
87.765781
 21
13.850105
  0
LINE
  8
1-1
  6
CONTINUOUS
 62
    7
 10
87.765781
 20
13.850105
 11
87.742209
 21
13.859128
  0
LINE
  8
1-1
  6
CONTINUOUS
 62
    7
 10
87.742209
 20
13.859128
 11
87.717898
 21
13.862167
  0
LINE
  8
1-1
  6
CONTINUOUS
 62
    7
 10
87.717898
 20
13.862167
 11
87.693588
 21
13.859128
  0
LINE
  8
1-1
  6
CONTINUOUS
 62
    7
 10
87.693588
 20
13.859128
 11
87.670016
 21
13.850105
  0
LINE
  8
1-1
  6
CONTINUOUS
 62
    7
 10
87.670016
 20
13.850105
 11
87.647898
 21
13.835372
  0
LINE
  8
1-1
  6
CONTINUOUS
 62
    7
 10
87.647898
 20
13.835372
 11
87.627908
 21
13.815375
  0
LINE
  8
1-1
  6
CONTINUOUS
 62
    7
 10
87.627908
 20
13.815375
 11
87.610652
 21
13.790724
  0
LINE
  8
1-1
  6
CONTINUOUS
 62
    7
 10
87.610652
 20
13.790724
 11
87.596655
 21
13.762167
  0
LINE
  8
1-1
  6
CONTINUOUS
 62
    7
 10
87.596655
 20
13.762167
 11
87.586341
 21
13.730571
  0
LINE
  8
1-1
  6
CONTINUOUS
 62
    7
 10
87.586341
 20
13.730571
 11
87.580025
 21
13.696896
  0
LINE
  8
1-1
  6
CONTINUOUS
 62
    7
 10
87.580025
 20
13.696896
 11
87.577898
 21
13.662167
  0
LINE
  8
1-1
  6
CONTINUOUS
 62
    7
 10
87.577898
 20
13.662167
 11
87.580025
 21
13.627437
  0
LINE
  8
1-1
  6
CONTINUOUS
 62
    7
 10
87.580025
 20
13.627437
 11
87.586341
 21
13.593762
  0
LINE
  8
1-1
  6
CONTINUOUS
 62
    7
 10
87.586341
 20
13.593762
 11
87.596655
 21
13.562167
  0
LINE
  8
1-1
  6
CONTINUOUS
 62
    7
 10
87.596655
 20
13.562167
 11
87.610652
 21
13.533609
  0
LINE
  8
1-1
  6
CONTINUOUS
 62
    7
 10
87.610652
 20
13.533609
 11
87.627908
 21
13.508958
  0
LINE
  8
1-1
  6
CONTINUOUS
 62
    7
 10
87.627908
 20
13.508958
 11
87.647898
 21
13.488961
  0
LINE
  8
1-1
  6
CONTINUOUS
 62
    7
 10
87.647898
 20
13.488961
 11
87.670016
 21
13.474228
  0
LINE
  8
1-1
  6
CONTINUOUS
 62
    7
 10
87.670016
 20
13.474228
 11
87.693588
 21
13.465205
  0
LINE
  8
1-1
  6
CONTINUOUS
 62
    7
 10
87.693588
 20
13.465205
 11
87.717898
 21
13.462167
  0
LINE
  8
1-1
  6
CONTINUOUS
 62
    7
 10
87.777494
 20
13.462167
 11
87.801805
 21
13.465205
  0
LINE
  8
1-1
  6
CONTINUOUS
 62
    7
 10
87.801805
 20
13.465205
 11
87.825377
 21
13.474228
  0
LINE
  8
1-1
  6
CONTINUOUS
 62
    7
 10
87.825377
 20
13.474228
 11
87.847494
 21
13.488961
  0
LINE
  8
1-1
  6
CONTINUOUS
 62
    7
 10
87.847494
 20
13.488961
 11
87.867485
 21
13.508958
  0
LINE
  8
1-1
  6
CONTINUOUS
 62
    7
 10
87.867485
 20
13.508958
 11
87.884741
 21
13.533609
  0
LINE
  8
1-1
  6
CONTINUOUS
 62
    7
 10
87.884741
 20
13.533609
 11
87.898738
 21
13.562167
  0
LINE
  8
1-1
  6
CONTINUOUS
 62
    7
 10
87.898738
 20
13.562167
 11
87.909051
 21
13.593762
  0
LINE
  8
1-1
  6
CONTINUOUS
 62
    7
 10
87.909051
 20
13.593762
 11
87.915367
 21
13.627437
  0
LINE
  8
1-1
  6
CONTINUOUS
 62
    7
 10
87.915367
 20
13.627437
 11
87.917494
 21
13.662167
  0
LINE
  8
1-1
  6
CONTINUOUS
 62
    7
 10
87.917494
 20
13.662167
 11
87.915367
 21
13.696896
  0
LINE
  8
1-1
  6
CONTINUOUS
 62
    7
 10
87.915367
 20
13.696896
 11
87.909051
 21
13.730571
  0
LINE
  8
1-1
  6
CONTINUOUS
 62
    7
 10
87.909051
 20
13.730571
 11
87.898738
 21
13.762167
  0
LINE
  8
1-1
  6
CONTINUOUS
 62
    7
 10
87.898738
 20
13.762167
 11
87.884741
 21
13.790724
  0
LINE
  8
1-1
  6
CONTINUOUS
 62
    7
 10
87.884741
 20
13.790724
 11
87.867485
 21
13.815375
  0
LINE
  8
1-1
  6
CONTINUOUS
 62
    7
 10
87.867485
 20
13.815375
 11
87.847494
 21
13.835372
  0
LINE
  8
1-1
  6
CONTINUOUS
 62
    7
 10
87.847494
 20
13.835372
 11
87.825377
 21
13.850105
  0
LINE
  8
1-1
  6
CONTINUOUS
 62
    7
 10
87.825377
 20
13.850105
 11
87.801805
 21
13.859128
  0
LINE
  8
1-1
  6
CONTINUOUS
 62
    7
 10
87.801805
 20
13.859128
 11
87.777494
 21
13.862167
  0
LINE
  8
1-1
  6
CONTINUOUS
 62
    7
 10
87.667891
 20
13.532167
 11
87.683519
 21
13.534141
  0
LINE
  8
1-1
  6
CONTINUOUS
 62
    7
 10
87.683519
 20
13.534141
 11
87.698672
 21
13.540006
  0
LINE
  8
1-1
  6
CONTINUOUS
 62
    7
 10
87.698672
 20
13.540006
 11
87.71289
 21
13.549583
  0
LINE
  8
1-1
  6
CONTINUOUS
 62
    7
 10
87.71289
 20
13.549583
 11
87.725741
 21
13.562581
  0
LINE
  8
1-1
  6
CONTINUOUS
 62
    7
 10
87.725741
 20
13.562581
 11
87.736834
 21
13.578604
  0
LINE
  8
1-1
  6
CONTINUOUS
 62
    7
 10
87.736834
 20
13.578604
 11
87.745832
 21
13.597167
  0
LINE
  8
1-1
  6
CONTINUOUS
 62
    7
 10
87.745832
 20
13.597167
 11
87.752462
 21
13.617704
  0
LINE
  8
1-1
  6
CONTINUOUS
 62
    7
 10
87.752462
 20
13.617704
 11
87.756523
 21
13.639592
  0
LINE
  8
1-1
  6
CONTINUOUS
 62
    7
 10
87.756523
 20
13.639592
 11
87.75789
 21
13.662167
  0
LINE
  8
1-1
  6
CONTINUOUS
 62
    7
 10
87.75789
 20
13.662167
 11
87.756523
 21
13.684741
  0
LINE
  8
1-1
  6
CONTINUOUS
 62
    7
 10
87.756523
 20
13.684741
 11
87.752462
 21
13.706629
  0
LINE
  8
1-1
  6
CONTINUOUS
 62
    7
 10
87.752462
 20
13.706629
 11
87.745832
 21
13.727167
  0
LINE
  8
1-1
  6
CONTINUOUS
 62
    7
 10
87.745832
 20
13.727167
 11
87.736834
 21
13.745729
  0
LINE
  8
1-1
  6
CONTINUOUS
 62
    7
 10
87.736834
 20
13.745729
 11
87.725741
 21
13.761752
  0
LINE
  8
1-1
  6
CONTINUOUS
 62
    7
 10
87.725741
 20
13.761752
 11
87.71289
 21
13.77475
  0
LINE
  8
1-1
  6
CONTINUOUS
 62
    7
 10
87.71289
 20
13.77475
 11
87.698672
 21
13.784327
  0
LINE
  8
1-1
  6
CONTINUOUS
 62
    7
 10
87.698672
 20
13.784327
 11
87.683519
 21
13.790192
  0
LINE
  8
1-1
  6
CONTINUOUS
 62
    7
 10
87.683519
 20
13.790192
 11
87.667891
 21
13.792167
  0
LINE
  8
1-1
  6
CONTINUOUS
 62
    7
 10
87.667891
 20
13.792167
 11
87.652263
 21
13.790192
  0
LINE
  8
1-1
  6
CONTINUOUS
 62
    7
 10
87.652263
 20
13.790192
 11
87.637109
 21
13.784327
  0
LINE
  8
1-1
  6
CONTINUOUS
 62
    7
 10
87.637109
 20
13.784327
 11
87.622891
 21
13.77475
  0
LINE
  8
1-1
  6
CONTINUOUS
 62
    7
 10
87.622891
 20
13.77475
 11
87.610041
 21
13.761752
  0
LINE
  8
1-1
  6
CONTINUOUS
 62
    7
 10
87.610041
 20
13.761752
 11
87.598948
 21
13.745729
  0
LINE
  8
1-1
  6
CONTINUOUS
 62
    7
 10
87.598948
 20
13.745729
 11
87.589949
 21
13.727167
  0
LINE
  8
1-1
  6
CONTINUOUS
 62
    7
 10
87.589949
 20
13.727167
 11
87.583319
 21
13.706629
  0
LINE
  8
1-1
  6
CONTINUOUS
 62
    7
 10
87.583319
 20
13.706629
 11
87.579259
 21
13.684741
  0
LINE
  8
1-1
  6
CONTINUOUS
 62
    7
 10
87.579259
 20
13.684741
 11
87.577892
 21
13.662167
  0
LINE
  8
1-1
  6
CONTINUOUS
 62
    7
 10
87.577892
 20
13.662167
 11
87.579259
 21
13.639592
  0
LINE
  8
1-1
  6
CONTINUOUS
 62
    7
 10
87.579259
 20
13.639592
 11
87.583319
 21
13.617704
  0
LINE
  8
1-1
  6
CONTINUOUS
 62
    7
 10
87.583319
 20
13.617704
 11
87.589949
 21
13.597167
  0
LINE
  8
1-1
  6
CONTINUOUS
 62
    7
 10
87.589949
 20
13.597167
 11
87.598948
 21
13.578604
  0
LINE
  8
1-1
  6
CONTINUOUS
 62
    7
 10
87.598948
 20
13.578604
 11
87.610041
 21
13.562581
  0
LINE
  8
1-1
  6
CONTINUOUS
 62
    7
 10
87.610041
 20
13.562581
 11
87.622891
 21
13.549583
  0
LINE
  8
1-1
  6
CONTINUOUS
 62
    7
 10
87.622891
 20
13.549583
 11
87.637109
 21
13.540006
  0
LINE
  8
1-1
  6
CONTINUOUS
 62
    7
 10
87.637109
 20
13.540006
 11
87.652263
 21
13.534141
  0
LINE
  8
1-1
  6
CONTINUOUS
 62
    7
 10
87.652263
 20
13.534141
 11
87.667891
 21
13.532167
  0
LINE
  8
1-1
  6
CONTINUOUS
 62
    7
 10
88.212354
 20
13.662167
 11
88.207037
 21
13.748991
  0
LINE
  8
1-1
  6
CONTINUOUS
 62
    7
 10
88.207037
 20
13.748991
 11
88.191246
 21
13.833177
  0
LINE
  8
1-1
  6
CONTINUOUS
 62
    7
 10
88.191246
 20
13.833177
 11
88.165463
 21
13.912167
  0
LINE
  8
1-1
  6
CONTINUOUS
 62
    7
 10
88.165463
 20
13.912167
 11
88.130469
 21
13.98356
  0
LINE
  8
1-1
  6
CONTINUOUS
 62
    7
 10
88.130469
 20
13.98356
 11
88.087329
 21
14.045189
  0
LINE
  8
1-1
  6
CONTINUOUS
 62
    7
 10
88.087329
 20
14.045189
 11
88.037354
 21
14.095179
  0
LINE
  8
1-1
  6
CONTINUOUS
 62
    7
 10
88.037354
 20
14.095179
 11
87.982061
 21
14.132013
  0
LINE
  8
1-1
  6
CONTINUOUS
 62
    7
 10
87.982061
 20
14.132013
 11
87.923131
 21
14.15457
  0
LINE
  8
1-1
  6
CONTINUOUS
 62
    7
 10
87.923131
 20
14.15457
 11
87.862354
 21
14.162167
  0
LINE
  8
1-1
  6
CONTINUOUS
 62
    7
 10
88.127494
 20
13.662167
 11
88.122177
 21
13.748991
  0
LINE
  8
1-1
  6
CONTINUOUS
 62
    7
 10
88.122177
 20
13.748991
 11
88.106387
 21
13.833177
  0
LINE
  8
1-1
  6
CONTINUOUS
 62
    7
 10
88.106387
 20
13.833177
 11
88.080603
 21
13.912167
  0
LINE
  8
1-1
  6
CONTINUOUS
 62
    7
 10
88.080603
 20
13.912167
 11
88.04561
 21
13.98356
  0
LINE
  8
1-1
  6
CONTINUOUS
 62
    7
 10
88.04561
 20
13.98356
 11
88.00247
 21
14.045189
  0
LINE
  8
1-1
  6
CONTINUOUS
 62
    7
 10
88.00247
 20
14.045189
 11
87.952494
 21
14.095179
  0
LINE
  8
1-1
  6
CONTINUOUS
 62
    7
 10
87.952494
 20
14.095179
 11
87.897201
 21
14.132013
  0
LINE
  8
1-1
  6
CONTINUOUS
 62
    7
 10
87.897201
 20
14.132013
 11
87.838271
 21
14.15457
  0
LINE
  8
1-1
  6
CONTINUOUS
 62
    7
 10
87.838271
 20
14.15457
 11
87.777494
 21
14.162167
  0
LINE
  8
1-1
  6
CONTINUOUS
 62
    7
 10
87.777494
 20
14.162167
 11
87.716717
 21
14.15457
  0
LINE
  8
1-1
  6
CONTINUOUS
 62
    7
 10
87.716717
 20
14.15457
 11
87.657787
 21
14.132013
  0
LINE
  8
1-1
  6
CONTINUOUS
 62
    7
 10
87.657787
 20
14.132013
 11
87.602494
 21
14.095179
  0
LINE
  8
1-1
  6
CONTINUOUS
 62
    7
 10
87.602494
 20
14.095179
 11
87.552519
 21
14.045189
  0
LINE
  8
1-1
  6
CONTINUOUS
 62
    7
 10
87.552519
 20
14.045189
 11
87.509379
 21
13.98356
  0
LINE
  8
1-1
  6
CONTINUOUS
 62
    7
 10
87.509379
 20
13.98356
 11
87.474385
 21
13.912167
  0
LINE
  8
1-1
  6
CONTINUOUS
 62
    7
 10
87.474385
 20
13.912167
 11
87.451853
 21
13.845435
  0
LINE
  8
1-1
  6
CONTINUOUS
 62
    7
 10
89.099776
 20
13.462167
 11
89.124086
 21
13.465205
  0
LINE
  8
1-1
  6
CONTINUOUS
 62
    7
 10
89.124086
 20
13.465205
 11
89.147658
 21
13.474228
  0
LINE
  8
1-1
  6
CONTINUOUS
 62
    7
 10
89.147658
 20
13.474228
 11
89.169776
 21
13.488961
  0
LINE
  8
1-1
  6
CONTINUOUS
 62
    7
 10
89.169776
 20
13.488961
 11
89.189766
 21
13.508958
  0
LINE
  8
1-1
  6
CONTINUOUS
 62
    7
 10
89.189766
 20
13.508958
 11
89.207022
 21
13.533609
  0
LINE
  8
1-1
  6
CONTINUOUS
 62
    7
 10
89.207022
 20
13.533609
 11
89.221019
 21
13.562167
  0
LINE
  8
1-1
  6
CONTINUOUS
 62
    7
 10
89.221019
 20
13.562167
 11
89.231333
 21
13.593762
  0
LINE
  8
1-1
  6
CONTINUOUS
 62
    7
 10
89.231333
 20
13.593762
 11
89.237649
 21
13.627437
  0
LINE
  8
1-1
  6
CONTINUOUS
 62
    7
 10
89.237649
 20
13.627437
 11
89.239776
 21
13.662167
  0
LINE
  8
1-1
  6
CONTINUOUS
 62
    7
 10
89.239776
 20
13.662167
 11
89.237649
 21
13.696896
  0
LINE
  8
1-1
  6
CONTINUOUS
 62
    7
 10
89.237649
 20
13.696896
 11
89.231333
 21
13.730571
  0
LINE
  8
1-1
  6
CONTINUOUS
 62
    7
 10
89.231333
 20
13.730571
 11
89.221019
 21
13.762167
  0
LINE
  8
1-1
  6
CONTINUOUS
 62
    7
 10
89.221019
 20
13.762167
 11
89.207022
 21
13.790724
  0
LINE
  8
1-1
  6
CONTINUOUS
 62
    7
 10
89.207022
 20
13.790724
 11
89.189766
 21
13.815375
  0
LINE
  8
1-1
  6
CONTINUOUS
 62
    7
 10
89.189766
 20
13.815375
 11
89.169776
 21
13.835372
  0
LINE
  8
1-1
  6
CONTINUOUS
 62
    7
 10
89.169776
 20
13.835372
 11
89.147658
 21
13.850105
  0
LINE
  8
1-1
  6
CONTINUOUS
 62
    7
 10
89.147658
 20
13.850105
 11
89.124086
 21
13.859128
  0
LINE
  8
1-1
  6
CONTINUOUS
 62
    7
 10
89.124086
 20
13.859128
 11
89.099776
 21
13.862167
  0
LINE
  8
1-1
  6
CONTINUOUS
 62
    7
 10
68.865929
 20
20.510188
 11
68.89663
 21
20.513986
  0
LINE
  8
1-1
  6
CONTINUOUS
 62
    7
 10
68.89663
 20
20.513986
 11
68.926398
 21
20.525265
  0
LINE
  8
1-1
  6
CONTINUOUS
 62
    7
 10
68.926398
 20
20.525265
 11
68.954329
 21
20.543682
  0
LINE
  8
1-1
  6
CONTINUOUS
 62
    7
 10
68.954329
 20
20.543682
 11
68.979573
 21
20.568677
  0
LINE
  8
1-1
  6
CONTINUOUS
 62
    7
 10
68.979573
 20
20.568677
 11
69.001365
 21
20.599491
  0
LINE
  8
1-1
  6
CONTINUOUS
 62
    7
 10
69.001365
 20
20.599491
 11
69.019042
 21
20.635188
  0
LINE
  8
1-1
  6
CONTINUOUS
 62
    7
 10
69.019042
 20
20.635188
 11
69.032066
 21
20.674683
  0
LINE
  8
1-1
  6
CONTINUOUS
 62
    7
 10
69.032066
 20
20.674683
 11
69.040043
 21
20.716776
  0
LINE
  8
1-1
  6
CONTINUOUS
 62
    7
 10
69.040043
 20
20.716776
 11
69.042729
 21
20.760188
  0
LINE
  8
1-1
  6
CONTINUOUS
 62
    7
 10
69.042729
 20
20.760188
 11
69.040043
 21
20.8036
  0
LINE
  8
1-1
  6
CONTINUOUS
 62
    7
 10
69.040043
 20
20.8036
 11
69.032066
 21
20.845693
  0
LINE
  8
1-1
  6
CONTINUOUS
 62
    7
 10
69.032066
 20
20.845693
 11
69.019042
 21
20.885188
  0
LINE
  8
1-1
  6
CONTINUOUS
 62
    7
 10
69.019042
 20
20.885188
 11
69.001365
 21
20.920885
  0
LINE
  8
1-1
  6
CONTINUOUS
 62
    7
 10
69.001365
 20
20.920885
 11
68.979573
 21
20.951699
  0
LINE
  8
1-1
  6
CONTINUOUS
 62
    7
 10
68.979573
 20
20.951699
 11
68.954329
 21
20.976694
  0
LINE
  8
1-1
  6
CONTINUOUS
 62
    7
 10
68.954329
 20
20.976694
 11
68.926398
 21
20.995111
  0
LINE
  8
1-1
  6
CONTINUOUS
 62
    7
 10
68.926398
 20
20.995111
 11
68.89663
 21
21.00639
  0
LINE
  8
1-1
  6
CONTINUOUS
 62
    7
 10
68.89663
 20
21.00639
 11
68.865929
 21
21.010188
  0
LINE
  8
1-1
  6
CONTINUOUS
 62
    7
 10
68.865929
 20
21.010188
 11
68.835228
 21
21.00639
  0
LINE
  8
1-1
  6
CONTINUOUS
 62
    7
 10
68.835228
 20
21.00639
 11
68.805459
 21
20.995111
  0
LINE
  8
1-1
  6
CONTINUOUS
 62
    7
 10
68.805459
 20
20.995111
 11
68.777529
 21
20.976694
  0
LINE
  8
1-1
  6
CONTINUOUS
 62
    7
 10
68.777529
 20
20.976694
 11
68.752284
 21
20.951699
  0
LINE
  8
1-1
  6
CONTINUOUS
 62
    7
 10
68.752284
 20
20.951699
 11
68.730492
 21
20.920885
  0
LINE
  8
1-1
  6
CONTINUOUS
 62
    7
 10
68.730492
 20
20.920885
 11
68.712815
 21
20.885188
  0
LINE
  8
1-1
  6
CONTINUOUS
 62
    7
 10
68.712815
 20
20.885188
 11
68.699791
 21
20.845693
  0
LINE
  8
1-1
  6
CONTINUOUS
 62
    7
 10
68.699791
 20
20.845693
 11
68.691815
 21
20.8036
  0
LINE
  8
1-1
  6
CONTINUOUS
 62
    7
 10
68.691815
 20
20.8036
 11
68.689129
 21
20.760188
  0
LINE
  8
1-1
  6
CONTINUOUS
 62
    7
 10
68.689129
 20
20.760188
 11
68.691815
 21
20.716776
  0
LINE
  8
1-1
  6
CONTINUOUS
 62
    7
 10
68.691815
 20
20.716776
 11
68.699791
 21
20.674683
  0
LINE
  8
1-1
  6
CONTINUOUS
 62
    7
 10
68.699791
 20
20.674683
 11
68.712815
 21
20.635188
  0
LINE
  8
1-1
  6
CONTINUOUS
 62
    7
 10
68.712815
 20
20.635188
 11
68.730492
 21
20.599491
  0
LINE
  8
1-1
  6
CONTINUOUS
 62
    7
 10
68.730492
 20
20.599491
 11
68.752284
 21
20.568677
  0
LINE
  8
1-1
  6
CONTINUOUS
 62
    7
 10
68.752284
 20
20.568677
 11
68.777529
 21
20.543682
  0
LINE
  8
1-1
  6
CONTINUOUS
 62
    7
 10
68.777529
 20
20.543682
 11
68.805459
 21
20.525265
  0
LINE
  8
1-1
  6
CONTINUOUS
 62
    7
 10
68.805459
 20
20.525265
 11
68.835228
 21
20.513986
  0
LINE
  8
1-1
  6
CONTINUOUS
 62
    7
 10
68.835228
 20
20.513986
 11
68.865929
 21
20.510188
  0
LINE
  8
1-1
  6
CONTINUOUS
 62
    7
 10
68.900167
 20
20.510275
 11
68.930928
 21
20.512928
  0
LINE
  8
1-1
  6
CONTINUOUS
 62
    7
 10
68.930928
 20
20.512928
 11
68.960896
 21
20.523093
  0
LINE
  8
1-1
  6
CONTINUOUS
 62
    7
 10
68.960896
 20
20.523093
 11
68.98916
 21
20.540463
  0
LINE
  8
1-1
  6
CONTINUOUS
 62
    7
 10
68.98916
 20
20.540463
 11
69.014862
 21
20.564508
  0
LINE
  8
1-1
  6
CONTINUOUS
 62
    7
 10
69.014862
 20
20.564508
 11
69.037221
 21
20.5945
  0
LINE
  8
1-1
  6
CONTINUOUS
 62
    7
 10
69.037221
 20
20.5945
 11
69.055557
 21
20.629526
  0
LINE
  8
1-1
  6
CONTINUOUS
 62
    7
 10
69.055557
 20
20.629526
 11
69.069312
 21
20.668521
  0
LINE
  8
1-1
  6
CONTINUOUS
 62
    7
 10
69.069312
 20
20.668521
 11
69.078071
 21
20.710303
  0
LINE
  8
1-1
  6
CONTINUOUS
 62
    7
 10
69.078071
 20
20.710303
 11
69.081565
 21
20.753599
  0
LINE
  8
1-1
  6
CONTINUOUS
 62
    7
 10
69.081565
 20
20.753599
 11
69.079689
 21
20.797096
  0
LINE
  8
1-1
  6
CONTINUOUS
 62
    7
 10
69.079689
 20
20.797096
 11
69.0725
 21
20.839472
  0
LINE
  8
1-1
  6
CONTINUOUS
 62
    7
 10
69.0725
 20
20.839472
 11
69.060216
 21
20.879439
  0
LINE
  8
1-1
  6
CONTINUOUS
 62
    7
 10
69.060216
 20
20.879439
 11
69.043211
 21
20.915782
  0
LINE
  8
1-1
  6
CONTINUOUS
 62
    7
 10
69.043211
 20
20.915782
 11
69.022001
 21
20.947398
  0
LINE
  8
1-1
  6
CONTINUOUS
 62
    7
 10
69.022001
 20
20.947398
 11
68.997231
 21
20.973325
  0
LINE
  8
1-1
  6
CONTINUOUS
 62
    7
 10
68.997231
 20
20.973325
 11
68.969653
 21
20.992776
  0
LINE
  8
1-1
  6
CONTINUOUS
 62
    7
 10
68.969653
 20
20.992776
 11
68.940105
 21
21.00516
  0
LINE
  8
1-1
  6
CONTINUOUS
 62
    7
 10
68.940105
 20
21.00516
 11
68.909486
 21
21.010101
  0
LINE
  8
1-1
  6
CONTINUOUS
 62
    7
 10
68.909486
 20
21.010101
 11
68.904826
 21
21.010188
  0
LINE
  8
1-1
  6
CONTINUOUS
 62
    7
 10
69.322055
 20
20.760188
 11
69.316683
 21
20.847012
  0
LINE
  8
1-1
  6
CONTINUOUS
 62
    7
 10
69.316683
 20
20.847012
 11
69.300731
 21
20.931198
  0
LINE
  8
1-1
  6
CONTINUOUS
 62
    7
 10
69.300731
 20
20.931198
 11
69.274682
 21
21.010188
  0
LINE
  8
1-1
  6
CONTINUOUS
 62
    7
 10
69.274682
 20
21.010188
 11
69.239329
 21
21.081582
  0
LINE
  8
1-1
  6
CONTINUOUS
 62
    7
 10
69.239329
 20
21.081582
 11
69.195745
 21
21.14321
  0
LINE
  8
1-1
  6
CONTINUOUS
 62
    7
 10
69.195745
 20
21.14321
 11
69.145255
 21
21.193201
  0
LINE
  8
1-1
  6
CONTINUOUS
 62
    7
 10
69.145255
 20
21.193201
 11
69.089394
 21
21.230034
  0
LINE
  8
1-1
  6
CONTINUOUS
 62
    7
 10
69.089394
 20
21.230034
 11
69.029857
 21
21.252592
  0
LINE
  8
1-1
  6
CONTINUOUS
 62
    7
 10
69.029857
 20
21.252592
 11
68.968455
 21
21.260188
  0
LINE
  8
1-1
  6
CONTINUOUS
 62
    7
 10
69.258426
 20
20.760188
 11
69.253054
 21
20.847012
  0
LINE
  8
1-1
  6
CONTINUOUS
 62
    7
 10
69.253054
 20
20.847012
 11
69.237101
 21
20.931198
  0
LINE
  8
1-1
  6
CONTINUOUS
 62
    7
 10
69.237101
 20
20.931198
 11
69.211053
 21
21.010188
  0
LINE
  8
1-1
  6
CONTINUOUS
 62
    7
 10
69.211053
 20
21.010188
 11
69.175699
 21
21.081582
  0
LINE
  8
1-1
  6
CONTINUOUS
 62
    7
 10
69.175699
 20
21.081582
 11
69.132116
 21
21.14321
  0
LINE
  8
1-1
  6
CONTINUOUS
 62
    7
 10
69.132116
 20
21.14321
 11
69.081626
 21
21.193201
  0
LINE
  8
1-1
  6
CONTINUOUS
 62
    7
 10
69.081626
 20
21.193201
 11
69.025765
 21
21.230034
  0
LINE
  8
1-1
  6
CONTINUOUS
 62
    7
 10
69.025765
 20
21.230034
 11
68.966228
 21
21.252592
  0
LINE
  8
1-1
  6
CONTINUOUS
 62
    7
 10
68.966228
 20
21.252592
 11
68.904826
 21
21.260188
  0
LINE
  8
1-1
  6
CONTINUOUS
 62
    7
 10
68.904826
 20
16.260187
 11
68.966228
 21
16.267783
  0
LINE
  8
1-1
  6
CONTINUOUS
 62
    7
 10
68.966228
 20
16.267783
 11
69.025765
 21
16.290341
  0
LINE
  8
1-1
  6
CONTINUOUS
 62
    7
 10
69.025765
 20
16.290341
 11
69.081626
 21
16.327175
  0
LINE
  8
1-1
  6
CONTINUOUS
 62
    7
 10
69.081626
 20
16.327175
 11
69.132116
 21
16.377165
  0
LINE
  8
1-1
  6
CONTINUOUS
 62
    7
 10
69.132116
 20
16.377165
 11
69.175699
 21
16.438793
  0
LINE
  8
1-1
  6
CONTINUOUS
 62
    7
 10
69.175699
 20
16.438793
 11
69.211053
 21
16.510187
  0
LINE
  8
1-1
  6
CONTINUOUS
 62
    7
 10
69.211053
 20
16.510187
 11
69.237101
 21
16.589177
  0
LINE
  8
1-1
  6
CONTINUOUS
 62
    7
 10
69.237101
 20
16.589177
 11
69.253054
 21
16.673363
  0
LINE
  8
1-1
  6
CONTINUOUS
 62
    7
 10
69.253054
 20
16.673363
 11
69.258426
 21
16.760187
  0
LINE
  8
1-1
  6
CONTINUOUS
 62
    7
 10
69.258426
 20
16.760187
 11
69.25602
 21
16.818424
  0
LINE
  8
1-1
  6
CONTINUOUS
 62
    7
 10
69.322059
 20
20.521719
 11
69.350538
 21
20.538374
  0
LINE
  8
1-1
  6
CONTINUOUS
 62
    7
 10
69.350538
 20
20.538374
 11
69.376538
 21
20.561769
  0
LINE
  8
1-1
  6
CONTINUOUS
 62
    7
 10
69.376538
 20
20.561769
 11
69.399271
 21
20.591193
  0
LINE
  8
1-1
  6
CONTINUOUS
 62
    7
 10
69.399271
 20
20.591193
 11
69.418045
 21
20.625752
  0
LINE
  8
1-1
  6
CONTINUOUS
 62
    7
 10
69.418045
 20
20.625752
 11
69.432289
 21
20.664395
  0
LINE
  8
1-1
  6
CONTINUOUS
 62
    7
 10
69.432289
 20
20.664395
 11
69.441572
 21
20.705949
  0
LINE
  8
1-1
  6
CONTINUOUS
 62
    7
 10
69.441572
 20
20.705949
 11
69.445611
 21
20.749151
  0
LINE
  8
1-1
  6
CONTINUOUS
 62
    7
 10
69.445611
 20
20.749151
 11
69.444283
 21
20.792689
  0
LINE
  8
1-1
  6
CONTINUOUS
 62
    7
 10
69.444283
 20
20.792689
 11
69.437629
 21
20.835238
  0
LINE
  8
1-1
  6
CONTINUOUS
 62
    7
 10
69.437629
 20
20.835238
 11
69.42585
 21
20.875508
  0
LINE
  8
1-1
  6
CONTINUOUS
 62
    7
 10
69.42585
 20
20.875508
 11
69.409305
 21
20.912274
  0
LINE
  8
1-1
  6
CONTINUOUS
 62
    7
 10
69.409305
 20
20.912274
 11
69.388497
 21
20.944418
  0
LINE
  8
1-1
  6
CONTINUOUS
 62
    7
 10
69.388497
 20
20.944418
 11
69.364057
 21
20.970965
  0
LINE
  8
1-1
  6
CONTINUOUS
 62
    7
 10
69.364057
 20
20.970965
 11
69.336728
 21
20.991107
  0
LINE
  8
1-1
  6
CONTINUOUS
 62
    7
 10
69.336728
 20
20.991107
 11
69.307341
 21
21.004233
  0
LINE
  8
1-1
  6
CONTINUOUS
 62
    7
 10
69.307341
 20
21.004233
 11
69.276789
 21
21.009944
  0
LINE
  8
1-1
  6
CONTINUOUS
 62
    7
 10
69.276789
 20
21.009944
 11
69.268983
 21
21.010188
  0
LINE
  8
1-1
  6
CONTINUOUS
 62
    7
 10
68.904124
 20
17.010185
 11
68.873434
 21
17.006215
  0
LINE
  8
1-1
  6
CONTINUOUS
 62
    7
 10
68.873434
 20
17.006215
 11
68.843697
 21
16.994769
  0
LINE
  8
1-1
  6
CONTINUOUS
 62
    7
 10
68.843697
 20
16.994769
 11
68.815819
 21
16.976195
  0
LINE
  8
1-1
  6
CONTINUOUS
 62
    7
 10
68.815819
 20
16.976195
 11
68.790644
 21
16.951058
  0
LINE
  8
1-1
  6
CONTINUOUS
 62
    7
 10
68.790644
 20
16.951058
 11
68.768939
 21
16.920122
  0
LINE
  8
1-1
  6
CONTINUOUS
 62
    7
 10
68.768939
 20
16.920122
 11
68.751363
 21
16.884326
  0
LINE
  8
1-1
  6
CONTINUOUS
 62
    7
 10
68.751363
 20
16.884326
 11
68.73845
 21
16.844758
  0
LINE
  8
1-1
  6
CONTINUOUS
 62
    7
 10
68.73845
 20
16.844758
 11
68.730592
 21
16.802621
  0
LINE
  8
1-1
  6
CONTINUOUS
 62
    7
 10
68.730592
 20
16.802621
 11
68.728028
 21
16.759194
  0
LINE
  8
1-1
  6
CONTINUOUS
 62
    7
 10
68.728028
 20
16.759194
 11
68.730836
 21
16.715797
  0
LINE
  8
1-1
  6
CONTINUOUS
 62
    7
 10
68.730836
 20
16.715797
 11
68.73893
 21
16.67375
  0
LINE
  8
1-1
  6
CONTINUOUS
 62
    7
 10
68.73893
 20
16.67375
 11
68.752065
 21
16.634328
  0
LINE
  8
1-1
  6
CONTINUOUS
 62
    7
 10
68.752065
 20
16.634328
 11
68.769842
 21
16.598731
  0
LINE
  8
1-1
  6
CONTINUOUS
 62
    7
 10
68.769842
 20
16.598731
 11
68.79172
 21
16.568039
  0
LINE
  8
1-1
  6
CONTINUOUS
 62
    7
 10
68.79172
 20
16.568039
 11
68.817035
 21
16.543186
  0
LINE
  8
1-1
  6
CONTINUOUS
 62
    7
 10
68.817035
 20
16.543186
 11
68.845018
 21
16.524926
  0
LINE
  8
1-1
  6
CONTINUOUS
 62
    7
 10
68.845018
 20
16.524926
 11
68.874817
 21
16.513815
  0
LINE
  8
1-1
  6
CONTINUOUS
 62
    7
 10
68.874817
 20
16.513815
 11
68.905529
 21
16.510189
  0
LINE
  8
1-1
  6
CONTINUOUS
 62
    7
 10
68.905529
 20
16.510189
 11
68.936219
 21
16.51416
  0
LINE
  8
1-1
  6
CONTINUOUS
 62
    7
 10
68.936219
 20
16.51416
 11
68.965955
 21
16.525606
  0
LINE
  8
1-1
  6
CONTINUOUS
 62
    7
 10
68.965955
 20
16.525606
 11
68.993834
 21
16.544179
  0
LINE
  8
1-1
  6
CONTINUOUS
 62
    7
 10
68.993834
 20
16.544179
 11
69.019008
 21
16.569316
  0
LINE
  8
1-1
  6
CONTINUOUS
 62
    7
 10
69.019008
 20
16.569316
 11
69.040713
 21
16.600253
  0
LINE
  8
1-1
  6
CONTINUOUS
 62
    7
 10
69.040713
 20
16.600253
 11
69.058289
 21
16.636048
  0
LINE
  8
1-1
  6
CONTINUOUS
 62
    7
 10
69.058289
 20
16.636048
 11
69.071203
 21
16.675616
  0
LINE
  8
1-1
  6
CONTINUOUS
 62
    7
 10
69.071203
 20
16.675616
 11
69.079061
 21
16.717754
  0
LINE
  8
1-1
  6
CONTINUOUS
 62
    7
 10
69.079061
 20
16.717754
 11
69.081625
 21
16.761181
  0
LINE
  8
1-1
  6
CONTINUOUS
 62
    7
 10
69.081625
 20
16.761181
 11
69.078817
 21
16.804577
  0
LINE
  8
1-1
  6
CONTINUOUS
 62
    7
 10
69.078817
 20
16.804577
 11
69.070722
 21
16.846625
  0
LINE
  8
1-1
  6
CONTINUOUS
 62
    7
 10
69.070722
 20
16.846625
 11
69.057587
 21
16.886046
  0
LINE
  8
1-1
  6
CONTINUOUS
 62
    7
 10
69.057587
 20
16.886046
 11
69.03981
 21
16.921644
  0
LINE
  8
1-1
  6
CONTINUOUS
 62
    7
 10
69.03981
 20
16.921644
 11
69.017932
 21
16.952335
  0
LINE
  8
1-1
  6
CONTINUOUS
 62
    7
 10
69.017932
 20
16.952335
 11
68.992617
 21
16.977189
  0
LINE
  8
1-1
  6
CONTINUOUS
 62
    7
 10
68.992617
 20
16.977189
 11
68.964635
 21
16.995448
  0
LINE
  8
1-1
  6
CONTINUOUS
 62
    7
 10
68.964635
 20
16.995448
 11
68.934835
 21
17.00656
  0
LINE
  8
1-1
  6
CONTINUOUS
 62
    7
 10
68.934835
 20
17.00656
 11
68.904826
 21
17.010187
  0
LINE
  8
1-1
  6
CONTINUOUS
 62
    7
 10
72.081473
 20
20.654524
 11
72.060537
 21
20.736498
  0
LINE
  8
1-1
  6
CONTINUOUS
 62
    7
 10
72.060537
 20
20.736498
 11
72.029852
 21
20.812085
  0
LINE
  8
1-1
  6
CONTINUOUS
 62
    7
 10
72.029852
 20
20.812085
 11
71.990351
 21
20.87899
  0
LINE
  8
1-1
  6
CONTINUOUS
 62
    7
 10
71.990351
 20
20.87899
 11
71.943234
 21
20.935179
  0
LINE
  8
1-1
  6
CONTINUOUS
 62
    7
 10
71.943234
 20
20.935179
 11
71.889932
 21
20.978945
  0
LINE
  8
1-1
  6
CONTINUOUS
 62
    7
 10
71.889932
 20
20.978945
 11
71.832066
 21
21.008959
  0
LINE
  8
1-1
  6
CONTINUOUS
 62
    7
 10
71.832066
 20
21.008959
 11
71.771392
 21
21.024307
  0
LINE
  8
1-1
  6
CONTINUOUS
 62
    7
 10
71.771392
 20
21.024307
 11
71.739695
 21
21.02632
  0
LINE
  8
1-1
  6
CONTINUOUS
 62
    7
 10
71.958453
 20
20.553068
 11
71.949804
 21
20.639362
  0
LINE
  8
1-1
  6
CONTINUOUS
 62
    7
 10
71.949804
 20
20.639362
 11
71.930689
 21
20.72222
  0
LINE
  8
1-1
  6
CONTINUOUS
 62
    7
 10
71.930689
 20
20.72222
 11
71.90169
 21
20.799127
  0
LINE
  8
1-1
  6
CONTINUOUS
 62
    7
 10
71.90169
 20
20.799127
 11
71.863686
 21
20.867744
  0
LINE
  8
1-1
  6
CONTINUOUS
 62
    7
 10
71.863686
 20
20.867744
 11
71.817833
 21
20.925987
  0
LINE
  8
1-1
  6
CONTINUOUS
 62
    7
 10
71.817833
 20
20.925987
 11
71.765525
 21
20.972087
  0
LINE
  8
1-1
  6
CONTINUOUS
 62
    7
 10
71.765525
 20
20.972087
 11
71.708349
 21
21.004642
  0
LINE
  8
1-1
  6
CONTINUOUS
 62
    7
 10
71.708349
 20
21.004642
 11
71.648045
 21
21.022664
  0
LINE
  8
1-1
  6
CONTINUOUS
 62
    7
 10
71.648045
 20
21.022664
 11
71.586443
 21
21.025604
  0
LINE
  8
1-1
  6
CONTINUOUS
 62
    7
 10
71.586443
 20
21.025604
 11
71.525417
 21
21.013374
  0
LINE
  8
1-1
  6
CONTINUOUS
 62
    7
 10
71.525417
 20
21.013374
 11
71.466819
 21
20.986346
  0
LINE
  8
1-1
  6
CONTINUOUS
 62
    7
 10
71.466819
 20
20.986346
 11
71.412431
 21
20.945339
  0
LINE
  8
1-1
  6
CONTINUOUS
 62
    7
 10
71.412431
 20
20.945339
 11
71.363905
 21
20.891601
  0
LINE
  8
1-1
  6
CONTINUOUS
 62
    7
 10
71.363905
 20
20.891601
 11
71.322715
 21
20.826764
  0
LINE
  8
1-1
  6
CONTINUOUS
 62
    7
 10
71.322715
 20
20.826764
 11
71.290113
 21
20.752798
  0
LINE
  8
1-1
  6
CONTINUOUS
 62
    7
 10
71.290113
 20
20.752798
 11
71.26709
 21
20.671951
  0
LINE
  8
1-1
  6
CONTINUOUS
 62
    7
 10
71.26709
 20
20.671951
 11
71.25648
 21
20.607745
  0
LINE
  8
1-1
  6
CONTINUOUS
 62
    7
 10
73.396666
 20
20.654524
 11
73.375729
 21
20.736498
  0
LINE
  8
1-1
  6
CONTINUOUS
 62
    7
 10
73.375729
 20
20.736498
 11
73.345044
 21
20.812085
  0
LINE
  8
1-1
  6
CONTINUOUS
 62
    7
 10
73.345044
 20
20.812085
 11
73.305543
 21
20.87899
  0
LINE
  8
1-1
  6
CONTINUOUS
 62
    7
 10
73.305543
 20
20.87899
 11
73.258426
 21
20.935179
  0
LINE
  8
1-1
  6
CONTINUOUS
 62
    7
 10
73.258426
 20
20.935179
 11
73.205124
 21
20.978945
  0
LINE
  8
1-1
  6
CONTINUOUS
 62
    7
 10
73.205124
 20
20.978945
 11
73.147258
 21
21.008959
  0
LINE
  8
1-1
  6
CONTINUOUS
 62
    7
 10
73.147258
 20
21.008959
 11
73.086584
 21
21.024307
  0
LINE
  8
1-1
  6
CONTINUOUS
 62
    7
 10
73.086584
 20
21.024307
 11
73.054887
 21
21.02632
  0
LINE
  8
1-1
  6
CONTINUOUS
 62
    7
 10
73.262331
 20
20.654522
 11
73.241395
 21
20.736496
  0
LINE
  8
1-1
  6
CONTINUOUS
 62
    7
 10
73.241395
 20
20.736496
 11
73.21071
 21
20.812084
  0
LINE
  8
1-1
  6
CONTINUOUS
 62
    7
 10
73.21071
 20
20.812084
 11
73.171209
 21
20.878989
  0
LINE
  8
1-1
  6
CONTINUOUS
 62
    7
 10
73.171209
 20
20.878989
 11
73.124092
 21
20.935178
  0
LINE
  8
1-1
  6
CONTINUOUS
 62
    7
 10
73.124092
 20
20.935178
 11
73.07079
 21
20.978945
  0
LINE
  8
1-1
  6
CONTINUOUS
 62
    7
 10
73.07079
 20
20.978945
 11
73.012924
 21
21.008958
  0
LINE
  8
1-1
  6
CONTINUOUS
 62
    7
 10
73.012924
 20
21.008958
 11
72.95225
 21
21.024307
  0
LINE
  8
1-1
  6
CONTINUOUS
 62
    7
 10
72.95225
 20
21.024307
 11
72.920552
 21
21.02632
  0
LINE
  8
1-1
  6
CONTINUOUS
 62
    7
 10
69.102803
 20
16.252022
 11
69.164205
 21
16.259618
  0
LINE
  8
1-1
  6
CONTINUOUS
 62
    7
 10
69.164205
 20
16.259618
 11
69.223741
 21
16.282175
  0
LINE
  8
1-1
  6
CONTINUOUS
 62
    7
 10
69.223741
 20
16.282175
 11
69.279603
 21
16.319009
  0
LINE
  8
1-1
  6
CONTINUOUS
 62
    7
 10
69.279603
 20
16.319009
 11
69.281498
 21
16.320567
  0
LINE
  8
1-1
  6
CONTINUOUS
 62
    7
 10
68.968455
 20
16.260187
 11
69.029857
 21
16.267783
  0
LINE
  8
1-1
  6
CONTINUOUS
 62
    7
 10
69.029857
 20
16.267783
 11
69.089394
 21
16.290341
  0
LINE
  8
1-1
  6
CONTINUOUS
 62
    7
 10
69.089394
 20
16.290341
 11
69.145255
 21
16.327175
  0
LINE
  8
1-1
  6
CONTINUOUS
 62
    7
 10
69.145255
 20
16.327175
 11
69.195745
 21
16.377165
  0
LINE
  8
1-1
  6
CONTINUOUS
 62
    7
 10
69.195745
 20
16.377165
 11
69.239329
 21
16.438793
  0
LINE
  8
1-1
  6
CONTINUOUS
 62
    7
 10
69.239329
 20
16.438793
 11
69.274682
 21
16.510187
  0
LINE
  8
1-1
  6
CONTINUOUS
 62
    7
 10
69.274682
 20
16.510187
 11
69.300731
 21
16.589177
  0
LINE
  8
1-1
  6
CONTINUOUS
 62
    7
 10
69.300731
 20
16.589177
 11
69.316683
 21
16.673363
  0
LINE
  8
1-1
  6
CONTINUOUS
 62
    7
 10
69.316683
 20
16.673363
 11
69.322055
 21
16.760187
  0
LINE
  8
1-1
  6
CONTINUOUS
 62
    7
 10
69.322055
 20
16.760187
 11
69.316683
 21
16.847011
  0
LINE
  8
1-1
  6
CONTINUOUS
 62
    7
 10
69.316683
 20
16.847011
 11
69.300731
 21
16.931197
  0
LINE
  8
1-1
  6
CONTINUOUS
 62
    7
 10
69.300731
 20
16.931197
 11
69.296221
 21
16.947795
  0
LINE
  8
1-1
  6
CONTINUOUS
 62
    7
 10
72.917248
 20
20.226201
 11
72.947949
 21
20.229999
  0
LINE
  8
1-1
  6
CONTINUOUS
 62
    7
 10
72.947949
 20
20.229999
 11
72.977718
 21
20.241278
  0
LINE
  8
1-1
  6
CONTINUOUS
 62
    7
 10
72.977718
 20
20.241278
 11
73.005648
 21
20.259695
  0
LINE
  8
1-1
  6
CONTINUOUS
 62
    7
 10
73.005648
 20
20.259695
 11
73.030893
 21
20.28469
  0
LINE
  8
1-1
  6
CONTINUOUS
 62
    7
 10
73.030893
 20
20.28469
 11
73.052685
 21
20.315505
  0
LINE
  8
1-1
  6
CONTINUOUS
 62
    7
 10
73.052685
 20
20.315505
 11
73.070362
 21
20.351201
  0
LINE
  8
1-1
  6
CONTINUOUS
 62
    7
 10
73.070362
 20
20.351201
 11
73.083386
 21
20.390696
  0
LINE
  8
1-1
  6
CONTINUOUS
 62
    7
 10
73.083386
 20
20.390696
 11
73.091362
 21
20.432789
  0
LINE
  8
1-1
  6
CONTINUOUS
 62
    7
 10
73.091362
 20
20.432789
 11
73.094048
 21
20.476201
  0
LINE
  8
1-1
  6
CONTINUOUS
 62
    7
 10
73.094048
 20
20.476201
 11
73.091362
 21
20.519613
  0
LINE
  8
1-1
  6
CONTINUOUS
 62
    7
 10
73.091362
 20
20.519613
 11
73.083386
 21
20.561706
  0
LINE
  8
1-1
  6
CONTINUOUS
 62
    7
 10
73.083386
 20
20.561706
 11
73.070362
 21
20.601201
  0
LINE
  8
1-1
  6
CONTINUOUS
 62
    7
 10
73.070362
 20
20.601201
 11
73.052685
 21
20.636898
  0
LINE
  8
1-1
  6
CONTINUOUS
 62
    7
 10
73.052685
 20
20.636898
 11
73.030893
 21
20.667713
  0
LINE
  8
1-1
  6
CONTINUOUS
 62
    7
 10
73.030893
 20
20.667713
 11
73.005648
 21
20.692708
  0
LINE
  8
1-1
  6
CONTINUOUS
 62
    7
 10
73.005648
 20
20.692708
 11
72.977718
 21
20.711125
  0
LINE
  8
1-1
  6
CONTINUOUS
 62
    7
 10
72.977718
 20
20.711125
 11
72.947949
 21
20.722403
  0
LINE
  8
1-1
  6
CONTINUOUS
 62
    7
 10
72.947949
 20
20.722403
 11
72.917248
 21
20.726201
  0
LINE
  8
1-1
  6
CONTINUOUS
 62
    7
 10
72.917248
 20
20.726201
 11
72.886547
 21
20.722403
  0
LINE
  8
1-1
  6
CONTINUOUS
 62
    7
 10
72.886547
 20
20.722403
 11
72.856779
 21
20.711125
  0
LINE
  8
1-1
  6
CONTINUOUS
 62
    7
 10
72.856779
 20
20.711125
 11
72.828848
 21
20.692708
  0
LINE
  8
1-1
  6
CONTINUOUS
 62
    7
 10
72.828848
 20
20.692708
 11
72.803604
 21
20.667713
  0
LINE
  8
1-1
  6
CONTINUOUS
 62
    7
 10
72.803604
 20
20.667713
 11
72.781812
 21
20.636898
  0
LINE
  8
1-1
  6
CONTINUOUS
 62
    7
 10
72.781812
 20
20.636898
 11
72.764135
 21
20.601201
  0
LINE
  8
1-1
  6
CONTINUOUS
 62
    7
 10
72.764135
 20
20.601201
 11
72.751111
 21
20.561706
  0
LINE
  8
1-1
  6
CONTINUOUS
 62
    7
 10
72.751111
 20
20.561706
 11
72.743134
 21
20.519613
  0
LINE
  8
1-1
  6
CONTINUOUS
 62
    7
 10
72.743134
 20
20.519613
 11
72.740448
 21
20.476201
  0
LINE
  8
1-1
  6
CONTINUOUS
 62
    7
 10
72.740448
 20
20.476201
 11
72.743134
 21
20.432789
  0
LINE
  8
1-1
  6
CONTINUOUS
 62
    7
 10
72.743134
 20
20.432789
 11
72.751111
 21
20.390696
  0
LINE
  8
1-1
  6
CONTINUOUS
 62
    7
 10
72.751111
 20
20.390696
 11
72.764135
 21
20.351201
  0
LINE
  8
1-1
  6
CONTINUOUS
 62
    7
 10
72.764135
 20
20.351201
 11
72.781812
 21
20.315505
  0
LINE
  8
1-1
  6
CONTINUOUS
 62
    7
 10
72.781812
 20
20.315505
 11
72.803604
 21
20.28469
  0
LINE
  8
1-1
  6
CONTINUOUS
 62
    7
 10
72.803604
 20
20.28469
 11
72.828848
 21
20.259695
  0
LINE
  8
1-1
  6
CONTINUOUS
 62
    7
 10
72.828848
 20
20.259695
 11
72.856779
 21
20.241278
  0
LINE
  8
1-1
  6
CONTINUOUS
 62
    7
 10
72.856779
 20
20.241278
 11
72.886547
 21
20.229999
  0
LINE
  8
1-1
  6
CONTINUOUS
 62
    7
 10
72.886547
 20
20.229999
 11
72.917248
 21
20.226201
  0
LINE
  8
1-1
  6
CONTINUOUS
 62
    7
 10
72.705118
 20
20.745019
 11
72.674417
 21
20.741221
  0
LINE
  8
1-1
  6
CONTINUOUS
 62
    7
 10
72.674417
 20
20.741221
 11
72.644649
 21
20.729942
  0
LINE
  8
1-1
  6
CONTINUOUS
 62
    7
 10
72.644649
 20
20.729942
 11
72.616718
 21
20.711526
  0
LINE
  8
1-1
  6
CONTINUOUS
 62
    7
 10
72.616718
 20
20.711526
 11
72.591473
 21
20.68653
  0
LINE
  8
1-1
  6
CONTINUOUS
 62
    7
 10
72.591473
 20
20.68653
 11
72.569682
 21
20.655716
  0
LINE
  8
1-1
  6
CONTINUOUS
 62
    7
 10
72.569682
 20
20.655716
 11
72.552005
 21
20.620019
  0
LINE
  8
1-1
  6
CONTINUOUS
 62
    7
 10
72.552005
 20
20.620019
 11
72.538981
 21
20.580524
  0
LINE
  8
1-1
  6
CONTINUOUS
 62
    7
 10
72.538981
 20
20.580524
 11
72.531004
 21
20.538431
  0
LINE
  8
1-1
  6
CONTINUOUS
 62
    7
 10
72.531004
 20
20.538431
 11
72.528318
 21
20.495019
  0
LINE
  8
1-1
  6
CONTINUOUS
 62
    7
 10
72.528318
 20
20.495019
 11
72.531004
 21
20.451607
  0
LINE
  8
1-1
  6
CONTINUOUS
 62
    7
 10
72.531004
 20
20.451607
 11
72.538981
 21
20.409514
  0
LINE
  8
1-1
  6
CONTINUOUS
 62
    7
 10
72.538981
 20
20.409514
 11
72.552005
 21
20.370019
  0
LINE
  8
1-1
  6
CONTINUOUS
 62
    7
 10
72.552005
 20
20.370019
 11
72.569682
 21
20.334322
  0
LINE
  8
1-1
  6
CONTINUOUS
 62
    7
 10
72.569682
 20
20.334322
 11
72.591473
 21
20.303508
  0
LINE
  8
1-1
  6
CONTINUOUS
 62
    7
 10
72.591473
 20
20.303508
 11
72.616718
 21
20.278513
  0
LINE
  8
1-1
  6
CONTINUOUS
 62
    7
 10
72.616718
 20
20.278513
 11
72.644649
 21
20.260096
  0
LINE
  8
1-1
  6
CONTINUOUS
 62
    7
 10
72.644649
 20
20.260096
 11
72.674417
 21
20.248817
  0
LINE
  8
1-1
  6
CONTINUOUS
 62
    7
 10
72.674417
 20
20.248817
 11
72.705118
 21
20.245019
  0
LINE
  8
1-1
  6
CONTINUOUS
 62
    7
 10
70.079305
 20
20.978409
 11
70.048496
 21
20.977336
  0
LINE
  8
1-1
  6
CONTINUOUS
 62
    7
 10
70.048496
 20
20.977336
 11
70.018287
 21
20.968714
  0
LINE
  8
1-1
  6
CONTINUOUS
 62
    7
 10
70.018287
 20
20.968714
 11
69.989596
 21
20.952805
  0
LINE
  8
1-1
  6
CONTINUOUS
 62
    7
 10
69.989596
 20
20.952805
 11
69.963294
 21
20.930094
  0
LINE
  8
1-1
  6
CONTINUOUS
 62
    7
 10
69.963294
 20
20.930094
 11
69.940181
 21
20.901269
  0
LINE
  8
1-1
  6
CONTINUOUS
 62
    7
 10
69.940181
 20
20.901269
 11
69.920959
 21
20.867206
  0
LINE
  8
1-1
  6
CONTINUOUS
 62
    7
 10
69.920959
 20
20.867206
 11
69.906212
 21
20.828942
  0
LINE
  8
1-1
  6
CONTINUOUS
 62
    7
 10
69.906212
 20
20.828942
 11
69.896388
 21
20.787637
  0
LINE
  8
1-1
  6
CONTINUOUS
 62
    7
 10
69.896388
 20
20.787637
 11
69.891785
 21
20.744548
  0
LINE
  8
1-1
  6
CONTINUOUS
 62
    7
 10
69.891785
 20
20.744548
 11
69.892544
 21
20.700983
  0
LINE
  8
1-1
  6
CONTINUOUS
 62
    7
 10
69.892544
 20
20.700983
 11
69.898642
 21
20.658267
  0
LINE
  8
1-1
  6
CONTINUOUS
 62
    7
 10
69.898642
 20
20.658267
 11
69.909892
 21
20.617696
  0
LINE
  8
1-1
  6
CONTINUOUS
 62
    7
 10
69.909892
 20
20.617696
 11
69.925954
 21
20.580505
  0
LINE
  8
1-1
  6
CONTINUOUS
 62
    7
 10
69.925954
 20
20.580505
 11
69.946339
 21
20.547822
  0
LINE
  8
1-1
  6
CONTINUOUS
 62
    7
 10
69.946339
 20
20.547822
 11
69.970428
 21
20.520642
  0
LINE
  8
1-1
  6
CONTINUOUS
 62
    7
 10
69.970428
 20
20.520642
 11
69.997489
 21
20.499789
  0
LINE
  8
1-1
  6
CONTINUOUS
 62
    7
 10
69.997489
 20
20.499789
 11
70.026699
 21
20.485898
  0
LINE
  8
1-1
  6
CONTINUOUS
 62
    7
 10
70.026699
 20
20.485898
 11
70.057172
 21
20.47939
  0
LINE
  8
1-1
  6
CONTINUOUS
 62
    7
 10
70.057172
 20
20.47939
 11
70.068239
 21
20.478899
  0
LINE
  8
1-1
  6
CONTINUOUS
 62
    7
 10
70.768611
 20
20.917275
 11
70.74422
 21
20.997317
  0
LINE
  8
1-1
  6
CONTINUOUS
 62
    7
 10
70.74422
 20
20.997317
 11
70.71037
 21
21.070153
  0
LINE
  8
1-1
  6
CONTINUOUS
 62
    7
 10
70.71037
 20
21.070153
 11
70.66809
 21
21.133571
  0
LINE
  8
1-1
  6
CONTINUOUS
 62
    7
 10
70.66809
 20
21.133571
 11
70.618665
 21
21.185644
  0
LINE
  8
1-1
  6
CONTINUOUS
 62
    7
 10
70.618665
 20
21.185644
 11
70.563595
 21
21.22479
  0
LINE
  8
1-1
  6
CONTINUOUS
 62
    7
 10
70.563595
 20
21.22479
 11
70.504555
 21
21.249819
  0
LINE
  8
1-1
  6
CONTINUOUS
 62
    7
 10
70.504555
 20
21.249819
 11
70.443338
 21
21.259971
  0
LINE
  8
1-1
  6
CONTINUOUS
 62
    7
 10
70.443338
 20
21.259971
 11
70.432916
 21
21.260188
  0
LINE
  8
1-1
  6
CONTINUOUS
 62
    7
 10
70.833562
 20
20.911509
 11
70.809859
 21
20.991963
  0
LINE
  8
1-1
  6
CONTINUOUS
 62
    7
 10
70.809859
 20
20.991963
 11
70.776637
 21
21.065374
  0
LINE
  8
1-1
  6
CONTINUOUS
 62
    7
 10
70.776637
 20
21.065374
 11
70.734903
 21
21.129512
  0
LINE
  8
1-1
  6
CONTINUOUS
 62
    7
 10
70.734903
 20
21.129512
 11
70.685928
 21
21.182429
  0
LINE
  8
1-1
  6
CONTINUOUS
 62
    7
 10
70.685928
 20
21.182429
 11
70.631198
 21
21.222516
  0
LINE
  8
1-1
  6
CONTINUOUS
 62
    7
 10
70.631198
 20
21.222516
 11
70.572376
 21
21.248555
  0
LINE
  8
1-1
  6
CONTINUOUS
 62
    7
 10
70.572376
 20
21.248555
 11
70.511251
 21
21.259755
  0
LINE
  8
1-1
  6
CONTINUOUS
 62
    7
 10
70.511251
 20
21.259755
 11
70.496545
 21
21.260188
  0
LINE
  8
1-1
  6
CONTINUOUS
 62
    7
 10
70.558683
 20
20.935896
 11
70.535195
 21
20.964108
  0
LINE
  8
1-1
  6
CONTINUOUS
 62
    7
 10
70.535195
 20
20.964108
 11
70.508599
 21
20.986124
  0
LINE
  8
1-1
  6
CONTINUOUS
 62
    7
 10
70.508599
 20
20.986124
 11
70.479704
 21
21.001275
  0
LINE
  8
1-1
  6
CONTINUOUS
 62
    7
 10
70.479704
 20
21.001275
 11
70.478327
 21
21.001801
  0
LINE
  8
1-1
  6
CONTINUOUS
 62
    7
 10
71.502833
 20
20.27632
 11
71.533534
 21
20.280118
  0
LINE
  8
1-1
  6
CONTINUOUS
 62
    7
 10
71.533534
 20
20.280118
 11
71.563302
 21
20.291397
  0
LINE
  8
1-1
  6
CONTINUOUS
 62
    7
 10
71.563302
 20
20.291397
 11
71.591233
 21
20.309814
  0
LINE
  8
1-1
  6
CONTINUOUS
 62
    7
 10
71.591233
 20
20.309814
 11
71.616478
 21
20.334809
  0
LINE
  8
1-1
  6
CONTINUOUS
 62
    7
 10
71.616478
 20
20.334809
 11
71.63827
 21
20.365623
  0
LINE
  8
1-1
  6
CONTINUOUS
 62
    7
 10
71.63827
 20
20.365623
 11
71.655946
 21
20.40132
  0
LINE
  8
1-1
  6
CONTINUOUS
 62
    7
 10
71.655946
 20
20.40132
 11
71.668971
 21
20.440815
  0
LINE
  8
1-1
  6
CONTINUOUS
 62
    7
 10
71.668971
 20
20.440815
 11
71.676947
 21
20.482908
  0
LINE
  8
1-1
  6
CONTINUOUS
 62
    7
 10
71.676947
 20
20.482908
 11
71.679633
 21
20.52632
  0
LINE
  8
1-1
  6
CONTINUOUS
 62
    7
 10
71.679633
 20
20.52632
 11
71.676947
 21
20.569732
  0
LINE
  8
1-1
  6
CONTINUOUS
 62
    7
 10
71.676947
 20
20.569732
 11
71.668971
 21
20.611825
  0
LINE
  8
1-1
  6
CONTINUOUS
 62
    7
 10
71.668971
 20
20.611825
 11
71.655946
 21
20.65132
  0
LINE
  8
1-1
  6
CONTINUOUS
 62
    7
 10
71.655946
 20
20.65132
 11
71.63827
 21
20.687017
  0
LINE
  8
1-1
  6
CONTINUOUS
 62
    7
 10
71.63827
 20
20.687017
 11
71.616478
 21
20.717831
  0
LINE
  8
1-1
  6
CONTINUOUS
 62
    7
 10
71.616478
 20
20.717831
 11
71.591233
 21
20.742827
  0
LINE
  8
1-1
  6
CONTINUOUS
 62
    7
 10
71.591233
 20
20.742827
 11
71.563302
 21
20.761243
  0
LINE
  8
1-1
  6
CONTINUOUS
 62
    7
 10
71.563302
 20
20.761243
 11
71.533534
 21
20.772522
  0
LINE
  8
1-1
  6
CONTINUOUS
 62
    7
 10
71.533534
 20
20.772522
 11
71.502833
 21
20.77632
  0
LINE
  8
1-1
  6
CONTINUOUS
 62
    7
 10
71.502833
 20
20.77632
 11
71.472132
 21
20.772522
  0
LINE
  8
1-1
  6
CONTINUOUS
 62
    7
 10
71.472132
 20
20.772522
 11
71.442364
 21
20.761243
  0
LINE
  8
1-1
  6
CONTINUOUS
 62
    7
 10
71.442364
 20
20.761243
 11
71.414433
 21
20.742827
  0
LINE
  8
1-1
  6
CONTINUOUS
 62
    7
 10
71.414433
 20
20.742827
 11
71.389188
 21
20.717831
  0
LINE
  8
1-1
  6
CONTINUOUS
 62
    7
 10
71.389188
 20
20.717831
 11
71.367396
 21
20.687017
  0
LINE
  8
1-1
  6
CONTINUOUS
 62
    7
 10
71.367396
 20
20.687017
 11
71.34972
 21
20.65132
  0
LINE
  8
1-1
  6
CONTINUOUS
 62
    7
 10
71.34972
 20
20.65132
 11
71.336695
 21
20.611825
  0
LINE
  8
1-1
  6
CONTINUOUS
 62
    7
 10
71.336695
 20
20.611825
 11
71.328719
 21
20.569732
  0
LINE
  8
1-1
  6
CONTINUOUS
 62
    7
 10
71.328719
 20
20.569732
 11
71.326033
 21
20.52632
  0
LINE
  8
1-1
  6
CONTINUOUS
 62
    7
 10
71.326033
 20
20.52632
 11
71.328719
 21
20.482908
  0
LINE
  8
1-1
  6
CONTINUOUS
 62
    7
 10
71.328719
 20
20.482908
 11
71.336695
 21
20.440815
  0
LINE
  8
1-1
  6
CONTINUOUS
 62
    7
 10
71.336695
 20
20.440815
 11
71.34972
 21
20.40132
  0
LINE
  8
1-1
  6
CONTINUOUS
 62
    7
 10
71.34972
 20
20.40132
 11
71.367396
 21
20.365623
  0
LINE
  8
1-1
  6
CONTINUOUS
 62
    7
 10
71.367396
 20
20.365623
 11
71.389188
 21
20.334809
  0
LINE
  8
1-1
  6
CONTINUOUS
 62
    7
 10
71.389188
 20
20.334809
 11
71.414433
 21
20.309814
  0
LINE
  8
1-1
  6
CONTINUOUS
 62
    7
 10
71.414433
 20
20.309814
 11
71.442364
 21
20.291397
  0
LINE
  8
1-1
  6
CONTINUOUS
 62
    7
 10
71.442364
 20
20.291397
 11
71.472132
 21
20.280118
  0
LINE
  8
1-1
  6
CONTINUOUS
 62
    7
 10
71.472132
 20
20.280118
 11
71.502833
 21
20.27632
  0
LINE
  8
1-1
  6
CONTINUOUS
 62
    7
 10
71.60536
 20
20.27632
 11
71.636061
 21
20.280118
  0
LINE
  8
1-1
  6
CONTINUOUS
 62
    7
 10
71.636061
 20
20.280118
 11
71.665829
 21
20.291397
  0
LINE
  8
1-1
  6
CONTINUOUS
 62
    7
 10
71.665829
 20
20.291397
 11
71.69376
 21
20.309814
  0
LINE
  8
1-1
  6
CONTINUOUS
 62
    7
 10
71.69376
 20
20.309814
 11
71.719004
 21
20.334809
  0
LINE
  8
1-1
  6
CONTINUOUS
 62
    7
 10
71.719004
 20
20.334809
 11
71.740796
 21
20.365623
  0
LINE
  8
1-1
  6
CONTINUOUS
 62
    7
 10
71.740796
 20
20.365623
 11
71.758473
 21
20.40132
  0
LINE
  8
1-1
  6
CONTINUOUS
 62
    7
 10
71.758473
 20
20.40132
 11
71.771497
 21
20.440815
  0
LINE
  8
1-1
  6
CONTINUOUS
 62
    7
 10
71.771497
 20
20.440815
 11
71.779474
 21
20.482908
  0
LINE
  8
1-1
  6
CONTINUOUS
 62
    7
 10
71.779474
 20
20.482908
 11
71.78216
 21
20.52632
  0
LINE
  8
1-1
  6
CONTINUOUS
 62
    7
 10
71.78216
 20
20.52632
 11
71.779474
 21
20.569732
  0
LINE
  8
1-1
  6
CONTINUOUS
 62
    7
 10
71.779474
 20
20.569732
 11
71.771497
 21
20.611825
  0
LINE
  8
1-1
  6
CONTINUOUS
 62
    7
 10
71.771497
 20
20.611825
 11
71.758473
 21
20.65132
  0
LINE
  8
1-1
  6
CONTINUOUS
 62
    7
 10
71.758473
 20
20.65132
 11
71.740796
 21
20.687017
  0
LINE
  8
1-1
  6
CONTINUOUS
 62
    7
 10
71.740796
 20
20.687017
 11
71.719004
 21
20.717831
  0
LINE
  8
1-1
  6
CONTINUOUS
 62
    7
 10
71.719004
 20
20.717831
 11
71.69376
 21
20.742827
  0
LINE
  8
1-1
  6
CONTINUOUS
 62
    7
 10
71.69376
 20
20.742827
 11
71.665829
 21
20.761243
  0
LINE
  8
1-1
  6
CONTINUOUS
 62
    7
 10
71.665829
 20
20.761243
 11
71.636061
 21
20.772522
  0
LINE
  8
1-1
  6
CONTINUOUS
 62
    7
 10
71.636061
 20
20.772522
 11
71.60536
 21
20.77632
  0
LINE
  8
1-1
  6
CONTINUOUS
 62
    7
 10
72.129529
 20
20.398444
 11
72.142925
 21
20.43769
  0
LINE
  8
1-1
  6
CONTINUOUS
 62
    7
 10
72.142925
 20
20.43769
 11
72.151297
 21
20.479629
  0
LINE
  8
1-1
  6
CONTINUOUS
 62
    7
 10
72.151297
 20
20.479629
 11
72.154392
 21
20.522987
  0
LINE
  8
1-1
  6
CONTINUOUS
 62
    7
 10
72.154392
 20
20.522987
 11
72.152116
 21
20.566445
  0
LINE
  8
1-1
  6
CONTINUOUS
 62
    7
 10
72.152116
 20
20.566445
 11
72.144537
 21
20.608685
  0
LINE
  8
1-1
  6
CONTINUOUS
 62
    7
 10
72.144537
 20
20.608685
 11
72.131887
 21
20.648422
  0
LINE
  8
1-1
  6
CONTINUOUS
 62
    7
 10
72.131887
 20
20.648422
 11
72.114548
 21
20.684449
  0
LINE
  8
1-1
  6
CONTINUOUS
 62
    7
 10
72.114548
 20
20.684449
 11
72.093049
 21
20.715672
  0
LINE
  8
1-1
  6
CONTINUOUS
 62
    7
 10
72.093049
 20
20.715672
 11
72.068042
 21
20.741141
  0
LINE
  8
1-1
  6
CONTINUOUS
 62
    7
 10
72.068042
 20
20.741141
 11
72.055727
 21
20.750593
  0
LINE
  8
1-1
  6
CONTINUOUS
 62
    7
 10
88.243907
 20
14.255957
 11
88.243126
 21
14.308239
  0
LINE
  8
1-1
  6
CONTINUOUS
 62
    7
 10
88.243126
 20
14.308239
 11
88.235937
 21
14.359534
  0
LINE
  8
1-1
  6
CONTINUOUS
 62
    7
 10
88.235937
 20
14.359534
 11
88.222561
 21
14.408285
  0
LINE
  8
1-1
  6
CONTINUOUS
 62
    7
 10
88.222561
 20
14.408285
 11
88.203402
 21
14.453009
  0
LINE
  8
1-1
  6
CONTINUOUS
 62
    7
 10
88.203402
 20
14.453009
 11
88.179044
 21
14.492349
  0
LINE
  8
1-1
  6
CONTINUOUS
 62
    7
 10
88.179044
 20
14.492349
 11
88.150226
 21
14.525108
  0
LINE
  8
1-1
  6
CONTINUOUS
 62
    7
 10
88.150226
 20
14.525108
 11
88.117825
 21
14.550292
  0
LINE
  8
1-1
  6
CONTINUOUS
 62
    7
 10
88.117825
 20
14.550292
 11
88.082823
 21
14.567134
  0
LINE
  8
1-1
  6
CONTINUOUS
 62
    7
 10
88.082823
 20
14.567134
 11
88.073748
 21
14.569988
  0
LINE
  8
1-1
  6
CONTINUOUS
 62
    7
 10
89.481329
 20
14.255957
 11
89.480547
 21
14.308239
  0
LINE
  8
1-1
  6
CONTINUOUS
 62
    7
 10
89.480547
 20
14.308239
 11
89.473359
 21
14.359534
  0
LINE
  8
1-1
  6
CONTINUOUS
 62
    7
 10
89.473359
 20
14.359534
 11
89.459983
 21
14.408285
  0
LINE
  8
1-1
  6
CONTINUOUS
 62
    7
 10
89.459983
 20
14.408285
 11
89.440824
 21
14.453009
  0
LINE
  8
1-1
  6
CONTINUOUS
 62
    7
 10
89.440824
 20
14.453009
 11
89.416466
 21
14.492349
  0
LINE
  8
1-1
  6
CONTINUOUS
 62
    7
 10
89.416466
 20
14.492349
 11
89.387648
 21
14.525108
  0
LINE
  8
1-1
  6
CONTINUOUS
 62
    7
 10
89.387648
 20
14.525108
 11
89.355246
 21
14.550292
  0
LINE
  8
1-1
  6
CONTINUOUS
 62
    7
 10
89.355246
 20
14.550292
 11
89.320245
 21
14.567134
  0
LINE
  8
1-1
  6
CONTINUOUS
 62
    7
 10
89.320245
 20
14.567134
 11
89.31117
 21
14.569988
  0
LINE
  8
1-1
  6
CONTINUOUS
 62
    7
 10
88.719094
 20
13.462166
 11
88.748578
 21
13.385629
  0
LINE
  8
1-1
  6
CONTINUOUS
 62
    7
 10
88.748578
 20
13.385629
 11
88.787014
 21
13.317494
  0
LINE
  8
1-1
  6
CONTINUOUS
 62
    7
 10
88.787014
 20
13.317494
 11
88.833233
 21
13.259832
  0
LINE
  8
1-1
  6
CONTINUOUS
 62
    7
 10
88.833233
 20
13.259832
 11
88.88583
 21
13.214395
  0
LINE
  8
1-1
  6
CONTINUOUS
 62
    7
 10
88.88583
 20
13.214395
 11
88.943209
 21
13.182563
  0
LINE
  8
1-1
  6
CONTINUOUS
 62
    7
 10
88.943209
 20
13.182563
 11
89.003625
 21
13.165304
  0
LINE
  8
1-1
  6
CONTINUOUS
 62
    7
 10
89.003625
 20
13.165304
 11
89.065242
 21
13.163141
  0
LINE
  8
1-1
  6
CONTINUOUS
 62
    7
 10
89.065242
 20
13.163141
 11
89.126189
 21
13.176141
  0
LINE
  8
1-1
  6
CONTINUOUS
 62
    7
 10
89.126189
 20
13.176141
 11
89.184614
 21
13.203909
  0
LINE
  8
1-1
  6
CONTINUOUS
 62
    7
 10
89.184614
 20
13.203909
 11
89.238741
 21
13.245601
  0
LINE
  8
1-1
  6
CONTINUOUS
 62
    7
 10
89.238741
 20
13.245601
 11
89.286926
 21
13.29995
  0
LINE
  8
1-1
  6
CONTINUOUS
 62
    7
 10
89.286926
 20
13.29995
 11
89.327704
 21
13.365304
  0
LINE
  8
1-1
  6
CONTINUOUS
 62
    7
 10
89.327704
 20
13.365304
 11
89.359838
 21
13.439679
  0
LINE
  8
1-1
  6
CONTINUOUS
 62
    7
 10
89.359838
 20
13.439679
 11
89.382349
 21
13.520813
  0
LINE
  8
1-1
  6
CONTINUOUS
 62
    7
 10
89.382349
 20
13.520813
 11
89.394555
 21
13.606243
  0
LINE
  8
1-1
  6
CONTINUOUS
 62
    7
 10
89.394555
 20
13.606243
 11
89.396084
 21
13.693372
  0
LINE
  8
1-1
  6
CONTINUOUS
 62
    7
 10
89.396084
 20
13.693372
 11
89.393191
 21
13.733164
  0
LINE
  8
1-1
  6
CONTINUOUS
 62
    7
 10
89.128083
 20
13.162167
 11
89.189485
 21
13.169763
  0
LINE
  8
1-1
  6
CONTINUOUS
 62
    7
 10
89.189485
 20
13.169763
 11
89.249021
 21
13.19232
  0
LINE
  8
1-1
  6
CONTINUOUS
 62
    7
 10
89.249021
 20
13.19232
 11
89.304883
 21
13.229154
  0
LINE
  8
1-1
  6
CONTINUOUS
 62
    7
 10
89.304883
 20
13.229154
 11
89.355372
 21
13.279144
  0
LINE
  8
1-1
  6
CONTINUOUS
 62
    7
 10
89.355372
 20
13.279144
 11
89.398956
 21
13.340773
  0
LINE
  8
1-1
  6
CONTINUOUS
 62
    7
 10
89.398956
 20
13.340773
 11
89.434309
 21
13.412167
  0
LINE
  8
1-1
  6
CONTINUOUS
 62
    7
 10
89.434309
 20
13.412167
 11
89.460358
 21
13.491156
  0
LINE
  8
1-1
  6
CONTINUOUS
 62
    7
 10
89.460358
 20
13.491156
 11
89.476311
 21
13.575342
  0
LINE
  8
1-1
  6
CONTINUOUS
 62
    7
 10
89.476311
 20
13.575342
 11
89.481683
 21
13.662167
  0
LINE
  8
1-1
  6
CONTINUOUS
 62
    7
 10
89.481683
 20
13.662167
 11
89.4781
 21
13.733164
  0
LINE
  8
1-1
  6
CONTINUOUS
 62
    7
 10
89.510288
 20
13.845438
 11
89.483063
 21
13.923435
  0
LINE
  8
1-1
  6
CONTINUOUS
 62
    7
 10
89.483063
 20
13.923435
 11
89.481681
 21
13.926631
  0
LINE
  8
1-1
  6
CONTINUOUS
 62
    7
 10
88.212345
 20
13.454654
 11
88.232941
 21
13.5368
  0
LINE
  8
1-1
  6
CONTINUOUS
 62
    7
 10
88.232941
 20
13.5368
 11
88.243136
 21
13.622755
  0
LINE
  8
1-1
  6
CONTINUOUS
 62
    7
 10
88.243136
 20
13.622755
 11
88.242621
 21
13.709908
  0
LINE
  8
1-1
  6
CONTINUOUS
 62
    7
 10
88.242621
 20
13.709908
 11
88.240653
 21
13.733164
  0
LINE
  8
1-1
  6
CONTINUOUS
 62
    7
 10
88.212339
 20
13.290851
 11
88.254341
 21
13.354639
  0
LINE
  8
1-1
  6
CONTINUOUS
 62
    7
 10
88.254341
 20
13.354639
 11
88.287871
 21
13.42777
  0
LINE
  8
1-1
  6
CONTINUOUS
 62
    7
 10
88.287871
 20
13.42777
 11
88.31191
 21
13.508024
  0
LINE
  8
1-1
  6
CONTINUOUS
 62
    7
 10
88.31191
 20
13.508024
 11
88.325729
 21
13.592961
  0
LINE
  8
1-1
  6
CONTINUOUS
 62
    7
 10
88.325729
 20
13.592961
 11
88.328908
 21
13.68
  0
LINE
  8
1-1
  6
CONTINUOUS
 62
    7
 10
88.328908
 20
13.68
 11
88.32555
 21
13.733164
  0
ARC
  8
1-1
  6
CONTINUOUS
 62
    7
 10
70.524332
 20
33.28219
 40
0.55
 50
90
 51
180.00128
  0
CIRCLE
  8
1-1
  6
CONTINUOUS
 62
    7
 10
70.526633
 20
33.279641
 40
0.225
  0
CIRCLE
  8
1-1
  6
CONTINUOUS
 62
    7
 10
53.518387
 20
26.980318
 40
0.225
  0
CIRCLE
  8
1-1
  6
CONTINUOUS
 62
    7
 10
53.510147
 20
26.988558
 40
0.45
  0
CIRCLE
  8
1-1
  6
CONTINUOUS
 62
    7
 10
52.822871
 20
25.498153
 40
0.2
  0
ARC
  8
1-1
  6
CONTINUOUS
 62
    7
 10
52.822871
 20
25.489914
 40
0.5
 50
100.38726
 51
253.86982
  0
ARC
  8
1-1
  6
CONTINUOUS
 62
    7
 10
53.518387
 20
26.988558
 40
0.6
 50
16.746124
 51
162.65219
  0
ARC
  8
1-1
  6
CONTINUOUS
 62
    7
 10
65.912338
 20
28.89716
 40
2.05
 50
359.59117
 51
180.02285
  0
ARC
  8
1-1
  6
CONTINUOUS
 62
    7
 10
65.912338
 20
28.397158
 40
2.05
 50
179.14776
 51
0.4662933
  0
ARC
  8
1-1
  6
CONTINUOUS
 62
    7
 10
65.94797
 20
28.861529
 40
1.7000001
 50
0.2442474
 51
180.22146
  0
ARC
  8
1-1
  6
CONTINUOUS
 62
    7
 10
65.94797
 20
28.361539
 40
1.7000001
 50
177.30476
 51
5.4786987
  0
ARC
  8
1-1
  6
CONTINUOUS
 62
    7
 10
65.949343
 20
30.31598
 40
2.1500001
 50
335.47955
 51
200.51422
  0
ARC
  8
1-1
  6
CONTINUOUS
 62
    7
 10
65.923956
 20
30.331816
 40
2.5000001
 50
93.474151
 51
192.94294
  0
ARC
  8
1-1
  6
CONTINUOUS
 62
    7
 10
65.923956
 20
30.331816
 40
2.5000001
 50
349.69938
 51
86.519195
  0
CIRCLE
  8
1-1
  6
CONTINUOUS
 62
    7
 10
56.911455
 20
28.993315
 40
1.3499998
  0
CIRCLE
  8
1-1
  6
CONTINUOUS
 62
    7
 10
56.929345
 20
28.975425
 40
0.9499999
  0
CIRCLE
  8
1-1
  6
CONTINUOUS
 62
    7
 10
56.911455
 20
28.993315
 40
0.7
  0
ARC
  8
1-1
  6
CONTINUOUS
 62
    7
 10
56.923703
 20
29.482219
 40
1.9500001
 50
353.47964
 51
185.40571
  0
ARC
  8
1-1
  6
CONTINUOUS
 62
    7
 10
56.929345
 20
29.475427
 40
1.6249997
 50
358.72718
 51
181.27281
  0
CIRCLE
  8
1-1
  6
CONTINUOUS
 62
    7
 10
62.226945
 20
72.262442
 40
1.25
  0
CIRCLE
  8
1-1
  6
CONTINUOUS
 62
    7
 10
72.228067
 20
33.278515
 40
0.225
  0
ARC
  8
1-1
  6
CONTINUOUS
 62
    7
 10
245.92435
 20
67.045118
 40
0.85
 50
178.68106
 51
53.977462
  0
ARC
  8
1-1
  6
CONTINUOUS
 62
    7
 10
245.82864
 20
67.048483
 40
0.45
 50
174.52528
 51
78.899932
  0
ARC
  8
1-1
  6
CONTINUOUS
 62
    7
 10
245.92222
 20
71.655664
 40
0.0799999
 50
200.22294
 51
345.95759
  0
ARC
  8
1-1
  6
CONTINUOUS
 62
    7
 10
245.92222
 20
69.714598
 40
0.0799999
 50
14.042404
 51
159.77705
  0
ARC
  8
1-1
  6
CONTINUOUS
 62
    7
 10
70.524332
 20
33.28219
 40
0.7448367
 50
179.23814
 51
222.40521
  0
ARC
  8
1-1
  6
CONTINUOUS
 62
    7
 10
72.22558
 20
33.284045
 40
0.55
 50
3.8488006
 51
85.272323
  0
CIRCLE
  8
1-1
  6
CONTINUOUS
 62
    7
 10
62.234368
 20
72.26316
 40
1.1499999
  0
CIRCLE
  8
1-1
  6
CONTINUOUS
 62
    7
 10
62.234368
 20
72.26316
 40
0.25
  0
ARC
  8
1-1
  6
CONTINUOUS
 62
    7
 10
239.94175
 20
98.829691
 40
0.05
 50
322.2456
 51
54.862808
  0
CIRCLE
  8
1-1
  6
CONTINUOUS
 62
    7
 10
240.83253
 20
96.999057
 40
0.1
  0
CIRCLE
  8
1-1
  6
CONTINUOUS
 62
    7
 10
240.83253
 20
96.999057
 40
0.05
  0
CIRCLE
  8
1-1
  6
CONTINUOUS
 62
    7
 10
241.33241
 20
96.987798
 40
0.05
  0
CIRCLE
  8
1-1
  6
CONTINUOUS
 62
    7
 10
241.79789
 20
96.337131
 40
0.05
  0
CIRCLE
  8
1-1
  6
CONTINUOUS
 62
    7
 10
241.14722
 20
95.871647
 40
0.05
  0
CIRCLE
  8
1-1
  6
CONTINUOUS
 62
    7
 10
240.68174
 20
96.522327
 40
0.05
  0
CIRCLE
  8
1-1
  6
CONTINUOUS
 62
    7
 10
241.64705
 20
95.860339
 40
0.1
  0
CIRCLE
  8
1-1
  6
CONTINUOUS
 62
    7
 10
241.64705
 20
95.860339
 40
0.05
  0
ARC
  8
1-1
  6
CONTINUOUS
 62
    7
 10
240.61201
 20
96.533895
 40
0.05
 50
125.58546
 51
215.58218
  0
ARC
  8
1-1
  6
CONTINUOUS
 62
    7
 10
241.34399
 20
97.057552
 40
0.05
 50
35.565689
 51
125.5624
  0
ARC
  8
1-1
  6
CONTINUOUS
 62
    7
 10
241.86762
 20
96.325563
 40
0.05
 50
305.58546
 51
35.582183
  0
ARC
  8
1-1
  6
CONTINUOUS
 62
    7
 10
241.13564
 20
95.801918
 40
0.05
 50
215.56568
 51
305.5624
  0
CIRCLE
  8
1-1
  6
CONTINUOUS
 62
    7
 10
94.929433
 20
216.88347
 40
1
  0
ARC
  8
1-1
  6
CONTINUOUS
 62
    7
 10
95.924364
 20
184.83519
 40
0.85
 50
178.68106
 51
53.977462
  0
ARC
  8
1-1
  6
CONTINUOUS
 62
    7
 10
95.828654
 20
184.83856
 40
0.45
 50
174.52528
 51
78.899932
  0
ARC
  8
1-1
  6
CONTINUOUS
 62
    7
 10
95.922236
 20
189.44574
 40
0.0799999
 50
200.22294
 51
345.95759
  0
ARC
  8
1-1
  6
CONTINUOUS
 62
    7
 10
95.922236
 20
187.50467
 40
0.0799999
 50
14.042404
 51
159.77705
  0
ARC
  8
1-1
  6
CONTINUOUS
 62
    7
 10
55.675759
 20
252.547
 40
0.1
 50
90
 51
180
  0
ARC
  8
1-1
  6
CONTINUOUS
 62
    7
 10
57.975762
 20
252.547
 40
0.1
 50
0
 51
90
  0
ARC
  8
1-1
  6
CONTINUOUS
 62
    7
 10
55.425758
 20
252.34699
 40
0.1
 50
90
 51
180
  0
ARC
  8
1-1
  6
CONTINUOUS
 62
    7
 10
58.225763
 20
252.34699
 40
0.1
 50
0
 51
90
  0
ARC
  8
1-1
  6
CONTINUOUS
 62
    7
 10
54.88076
 20
250.76699
 40
0.0799999
 50
90
 51
180
  0
ARC
  8
1-1
  6
CONTINUOUS
 62
    7
 10
54.900765
 20
250.747
 40
0.1
 50
179.53155
 51
180
  0
ARC
  8
1-1
  6
CONTINUOUS
 62
    7
 10
54.88076
 20
250.76699
 40
0.0799999
 50
90
 51
180
  0
ARC
  8
1-1
  6
CONTINUOUS
 62
    7
 10
58.770761
 20
250.76699
 40
0.0799999
 50
0
 51
90
  0
ARC
  8
1-1
  6
CONTINUOUS
 62
    7
 10
58.770761
 20
250.727
 40
0.0799999
 50
270
 51
0
  0
ARC
  8
1-1
  6
CONTINUOUS
 62
    7
 10
54.88076
 20
250.727
 40
0.0799999
 50
180
 51
270
  0
ARC
  8
1-1
  6
CONTINUOUS
 62
    7
 10
55.055762
 20
250.62699
 40
0.0799999
 50
180
 51
270
  0
ARC
  8
1-1
  6
CONTINUOUS
 62
    7
 10
58.595759
 20
250.62699
 40
0.0799999
 50
270
 51
0
  0
ARC
  8
1-1
  6
CONTINUOUS
 62
    7
 10
54.88076
 20
248.12696
 40
0.0799999
 50
180
 51
270
  0
ARC
  8
1-1
  6
CONTINUOUS
 62
    7
 10
54.900765
 20
248.14697
 40
0.1
 50
180
 51
180.46844
  0
ARC
  8
1-1
  6
CONTINUOUS
 62
    7
 10
54.88076
 20
248.12696
 40
0.0799999
 50
180
 51
270
  0
ARC
  8
1-1
  6
CONTINUOUS
 62
    7
 10
58.770761
 20
248.12696
 40
0.0799999
 50
270
 51
360
  0
ARC
  8
1-1
  6
CONTINUOUS
 62
    7
 10
58.770761
 20
248.16699
 40
0.0799999
 50
360
 51
90
  0
ARC
  8
1-1
  6
CONTINUOUS
 62
    7
 10
54.88076
 20
248.16699
 40
0.0799999
 50
90
 51
180
  0
ARC
  8
1-1
  6
CONTINUOUS
 62
    7
 10
55.055762
 20
248.26701
 40
0.0799999
 50
90
 51
180
  0
ARC
  8
1-1
  6
CONTINUOUS
 62
    7
 10
58.595759
 20
248.26701
 40
0.0799999
 50
360
 51
90
  0
ARC
  8
1-1
  6
CONTINUOUS
 62
    7
 10
55.555763
 20
246.77697
 40
0.0799999
 50
180
 51
270
  0
ARC
  8
1-1
  6
CONTINUOUS
 62
    7
 10
58.095758
 20
246.77697
 40
0.0799999
 50
270
 51
0
  0
ARC
  8
1-1
  6
CONTINUOUS
 62
    7
 10
55.700763
 20
242.24699
 40
0.1
 50
180
 51
270
  0
ARC
  8
1-1
  6
CONTINUOUS
 62
    7
 10
57.950758
 20
242.24699
 40
0.1
 50
270
 51
0
  0
ARC
  8
1-1
  6
CONTINUOUS
 62
    7
 10
56.140637
 20
241.89702
 40
0.1
 50
202.77416
 51
270
  0
ARC
  8
1-1
  6
CONTINUOUS
 62
    7
 10
57.950758
 20
242.24699
 40
0.1
 50
270
 51
360
  0
ARC
  8
1-1
  6
CONTINUOUS
 62
    7
 10
57.510884
 20
241.89702
 40
0.1
 50
270
 51
337.22583
  0
CIRCLE
  8
1-1
  6
CONTINUOUS
 62
    7
 10
56.824214
 20
251.2062
 40
0.3
  0
CIRCLE
  8
1-1
  6
CONTINUOUS
 62
    7
 10
56.824214
 20
251.2062
 40
0.15
  0
CIRCLE
  8
1-1
  6
CONTINUOUS
 62
    7
 10
56.824486
 20
245.1555
 40
0.2
  0
ARC
  8
1-1
  6
CONTINUOUS
 62
    7
 10
64.725759
 20
250.54702
 40
0.1
 50
90
 51
180
  0
ARC
  8
1-1
  6
CONTINUOUS
 62
    7
 10
67.125752
 20
250.54702
 40
0.1
 50
0
 51
90
  0
ARC
  8
1-1
  6
CONTINUOUS
 62
    7
 10
65.324873
 20
251.04699
 40
0.1
 50
90
 51
140.66271
  0
ARC
  8
1-1
  6
CONTINUOUS
 62
    7
 10
66.526639
 20
251.04699
 40
0.1
 50
39.33728
 51
90
  0
ARC
  8
1-1
  6
CONTINUOUS
 62
    7
 10
63.900758
 20
247.347
 40
0.1
 50
90
 51
180
  0
ARC
  8
1-1
  6
CONTINUOUS
 62
    7
 10
67.950754
 20
247.347
 40
0.1
 50
0
 51
90
  0
ARC
  8
1-1
  6
CONTINUOUS
 62
    7
 10
63.705751
 20
246.61703
 40
0.0799999
 50
90
 51
180
  0
ARC
  8
1-1
  6
CONTINUOUS
 62
    7
 10
68.145761
 20
246.61703
 40
0.0799999
 50
0
 51
90
  0
ARC
  8
1-1
  6
CONTINUOUS
 62
    7
 10
68.145761
 20
246.57699
 40
0.0799999
 50
270
 51
0
  0
ARC
  8
1-1
  6
CONTINUOUS
 62
    7
 10
63.705751
 20
246.57699
 40
0.0799999
 50
180
 51
270
  0
ARC
  8
1-1
  6
CONTINUOUS
 62
    7
 10
63.855749
 20
246.477
 40
0.0799999
 50
180
 51
270
  0
ARC
  8
1-1
  6
CONTINUOUS
 62
    7
 10
67.995763
 20
246.477
 40
0.0799999
 50
270
 51
0
  0
ARC
  8
1-1
  6
CONTINUOUS
 62
    7
 10
63.705751
 20
243.27699
 40
0.0799999
 50
180
 51
270
  0
ARC
  8
1-1
  6
CONTINUOUS
 62
    7
 10
68.145761
 20
243.27699
 40
0.0799999
 50
270
 51
360
  0
ARC
  8
1-1
  6
CONTINUOUS
 62
    7
 10
68.145761
 20
243.31702
 40
0.0799999
 50
360
 51
90
  0
ARC
  8
1-1
  6
CONTINUOUS
 62
    7
 10
63.705751
 20
243.31702
 40
0.0799999
 50
90
 51
180
  0
ARC
  8
1-1
  6
CONTINUOUS
 62
    7
 10
63.855749
 20
243.41701
 40
0.0799999
 50
90
 51
180
  0
ARC
  8
1-1
  6
CONTINUOUS
 62
    7
 10
67.995763
 20
243.41701
 40
0.0799999
 50
360
 51
90
  0
ARC
  8
1-1
  6
CONTINUOUS
 62
    7
 10
63.875754
 20
242.297
 40
0.1
 50
180
 51
270
  0
ARC
  8
1-1
  6
CONTINUOUS
 62
    7
 10
67.975758
 20
242.297
 40
0.1
 50
270
 51
0
  0
ARC
  8
1-1
  6
CONTINUOUS
 62
    7
 10
64.880756
 20
240.62701
 40
0.0799999
 50
180
 51
270
  0
ARC
  8
1-1
  6
CONTINUOUS
 62
    7
 10
66.970756
 20
240.62701
 40
0.0799999
 50
270
 51
0
  0
ARC
  8
1-1
  6
CONTINUOUS
 62
    7
 10
63.675748
 20
241.797
 40
0.1
 50
180
 51
270
  0
ARC
  8
1-1
  6
CONTINUOUS
 62
    7
 10
68.175763
 20
241.797
 40
0.1
 50
270
 51
0
  0
CIRCLE
  8
1-1
  6
CONTINUOUS
 62
    7
 10
65.921339
 20
242.69827
 40
0.225
  0
CIRCLE
  8
1-1
  6
CONTINUOUS
 62
    7
 10
65.921339
 20
242.69827
 40
0.1125
  0
ARC
  8
1-1
  6
CONTINUOUS
 62
    7
 10
63.525763
 20
249.84701
 40
0.2
 50
90
 51
180
  0
ARC
  8
1-1
  6
CONTINUOUS
 62
    7
 10
69.025756
 20
249.84701
 40
0.2
 50
0
 51
90
  0
ARC
  8
1-1
  6
CONTINUOUS
 62
    7
 10
63.525763
 20
244.89703
 40
0.2
 50
180
 51
270
  0
ARC
  8
1-1
  6
CONTINUOUS
 62
    7
 10
69.025756
 20
244.89703
 40
0.2
 50
270
 51
0
  0
CIRCLE
  8
1-1
  6
CONTINUOUS
 62
    7
 10
67.626917
 20
249.04911
 40
0.1
  0
CIRCLE
  8
1-1
  6
CONTINUOUS
 62
    7
 10
68.324277
 20
249.04911
 40
0.1
  0
CIRCLE
  8
1-1
  6
CONTINUOUS
 62
    7
 10
63.074334
 20
248.39766
 40
0.1
  0
CIRCLE
  8
1-1
  6
CONTINUOUS
 62
    7
 10
63.074334
 20
247.29873
 40
0.1
  0
CIRCLE
  8
1-1
  6
CONTINUOUS
 62
    7
 10
69.473709
 20
248.40255
 40
0.1
  0
CIRCLE
  8
1-1
  6
CONTINUOUS
 62
    7
 10
69.473709
 20
247.29922
 40
0.1
  0
CIRCLE
  8
1-1
  6
CONTINUOUS
 62
    7
 10
60.525778
 20
247.29699
 40
1.2083333
  0
CIRCLE
  8
1-1
  6
CONTINUOUS
 62
    7
 10
60.525778
 20
247.29699
 40
0.9666667
  0
CIRCLE
  8
1-1
  6
CONTINUOUS
 62
    7
 10
60.525778
 20
247.29699
 40
0.725
  0
CIRCLE
  8
1-1
  6
CONTINUOUS
 62
    7
 10
60.525778
 20
247.29699
 40
0.4833333
  0
CIRCLE
  8
1-1
  6
CONTINUOUS
 62
    7
 10
60.525778
 20
247.29699
 40
0.2416666
  0
CIRCLE
  8
1-1
  6
CONTINUOUS
 62
    7
 10
60.525654
 20
248.5044
 40
0.0799999
  0
CIRCLE
  8
1-1
  6
CONTINUOUS
 62
    7
 10
59.480085
 20
247.90057
 40
0.0799999
  0
CIRCLE
  8
1-1
  6
CONTINUOUS
 62
    7
 10
59.480184
 20
246.69317
 40
0.0799999
  0
CIRCLE
  8
1-1
  6
CONTINUOUS
 62
    7
 10
60.525852
 20
246.08954
 40
0.0799999
  0
CIRCLE
  8
1-1
  6
CONTINUOUS
 62
    7
 10
61.571421
 20
246.69324
 40
0.0799999
  0
CIRCLE
  8
1-1
  6
CONTINUOUS
 62
    7
 10
61.571322
 20
247.9006
 40
0.0799999
  0
ARC
  8
1-1
  6
CONTINUOUS
 62
    7
 10
60.525778
 20
247.29699
 40
1.45
 50
29.556518
 51
149.98822
  0
ARC
  8
1-1
  6
CONTINUOUS
 62
    7
 10
60.525778
 20
247.29699
 40
1.45
 50
209.28445
 51
330.27877
  0
ARC
  8
1-0
  6
CONTINUOUS
 62
    7
 10
65.925756
 20
247.2968
 40
40.5
 50
144.75212
 51
251.87603
  0
TEXT
  8
0-0
 10
323.25882
 20
49.805379
 40
2.5
 41
1
 50
0
  1
DESCRIPTION
  0
TEXT
  8
0-0
 10
357.93273
 20
50.049575
 40
2.5
 41
1
 50
0
  1
MATL
  0
TEXT
  8
0-0
 10
371.11855
 20
49.805379
 40
2.5
 41
1
 50
0
  1
QTY
  0
TEXT
  8
0-0
 10
380.80602
 20
49.805379
 40
2.5
 41
1
 50
0
  1
WEIGHT
  0
TEXT
  8
0-0
 10
396.75772
 20
49.561203
 40
2.5
 41
1
 50
0
  1
NOTE
  0
TEXT
  8
0-0
 10
368.92096
 20
42.470938
 40
2.5
 41
1
 50
0
  1
APPROVED  BY
  0
TEXT
  8
0-0
 10
369.40929
 20
35.878028
 40
2.5
 41
1
 50
0
  1
CHECKED   BY
  0
TEXT
  8
0-0
 10
369.89768
 20
28.796727
 40
2.5
 41
1
 50
0
  1
DESIGNED  BY
  0
TEXT
  8
0-0
 10
369.89768
 20
22.203795
 40
2.5
 41
1
 50
0
  1
DRAWN     BY
  0
TEXT
  8
0-0
 10
386.74626
 20
14.154747
 40
2.5
 41
1
 50
0
  1
DRAWING  NO
  0
TEXT
  8
0-0
 10
323.74721
 20
42.235719
 40
2.5
 41
1
 50
0
  1
TITLE
  0
TEXT
  8
0-0
 10
302.01499
 20
29.049871
 40
2.5
 41
1
 50
0
  1
PRODUCTION NO
  0
TEXT
  8
0-0
 10
302.01499
 20
21.968593
 40
2.5
 41
1
 50
0
  1
SCALE
  0
TEXT
  8
0-0
 10
339.55644
 20
21.968593
 40
2.5
 41
1
 50
0
  1
DATE
  0
TEXT
  8
0-0
 10
311.04967
 20
10.00365
 40
4
 41
1
 50
0
  1
MATSUDA ENGRG CO.LTD.
  0
TEXT
  8
0-0
 10
320.08448
 20
5.119993
 40
2.5
 41
1
 50
0
  1
MATSUDO CHIBA JAPAN
  0
TEXT
  8
0-0
 10
302.99169
 20
9.7594634
 40
3
 41
1
 50
0
  1
MEC
  0
TEXT
  8
0-0
 10
199.62989
 20
282.20179
 40
3
 41
1
 50
0
  1
MEC
  0
TEXT
  8
0-0
 10
300.78391
 20
46.125764
 40
3
 41
1
 50
0
  1
符号
  0
TEXT
  8
0-0
 10
302.89865
 20
49.879778
 40
2.5
 41
1
 50
0
  1
No
  0
TEXT
  8
0-0
 10
322.28521
 20
46.120731
 40
3
 41
1
 50
0
  1
名　　　称
  0
TEXT
  8
0-0
 10
355.38603
 20
46.120731
 40
3
 41
1
 50
0
  1
材　質
  0
TEXT
  8
0-0
 10
368.50141
 20
45.912548
 40
3
 41
1
 50
0
  1
個　数
  0
TEXT
  8
0-0
 10
380.36778
 20
45.912548
 40
3
 41
1
 50
0
  1
重　量
  0
TEXT
  8
0-0
 10
394.16336
 20
46.211301
 40
3
 41
1
 50
0
  1
摘　　要
  0
TEXT
  8
0-0
 10
371.31519
 20
39.174564
 40
3
 41
1
 50
0
  1
承　　認
  0
TEXT
  8
0-0
 10
371.24601
 20
32.316475
 40
3
 41
1
 50
0
  1
検　　図
  0
TEXT
  8
0-0
 10
371.32593
 20
25.365247
 40
3
 41
1
 50
0
  1
設　　計
  0
TEXT
  8
0-0
 10
371.36807
 20
18.588647
 40
3
 41
1
 50
0
  1
製　　図
  0
TEXT
  8
0-0
 10
371.53551
 20
14.067495
 40
3
 41
1
 50
0
  1
図　　番
  0
TEXT
  8
0-0
 10
306.30053
 20
41.599808
 40
3
 41
1
 50
0
  1
名　　称
  0
TEXT
  8
0-0
 10
305.64454
 20
25.557118
 40
3
 41
1
 50
0
  1
製　　番
  0
TEXT
  8
0-0
 10
302.34857
 20
18.569593
 40
3
 41
1
 50
0
  1
尺　度
  0
TEXT
  8
0-0
 10
338.08892
 20
18.569593
 40
3
 41
1
 50
0
  1
日　付
  0
TEXT
  8
0-0
 10
327.88688
 20
32.490348
 40
3
 41
1
 50
0
  1
組立外形図
  0
TEXT
  8
0-0
 10
283.92524
 20
121.33931
 40
3
 41
1
 50
0
  1
型　　式
  0
TEXT
  8
0-0
 10
283.92524
 20
113.33931
 40
3
 41
1
 50
0
  1
定格荷重
  0
TEXT
  8
0-0
 10
283.92524
 20
117.3393
 40
3
 41
1
 50
0
  1
旋回半径
  0
TEXT
  8
0-0
 10
283.92524
 20
109.3393
 40
3
 41
1
 50
0
  1
揚　　程
  0
TEXT
  8
0-0
 10
277.76292
 20
101.21233
 40
3
 41
1
 50
0
  1
速　度
  0
TEXT
  8
0-0
 10
292.05564
 20
105.21232
 40
3
 41
1
 50
0
  1
巻　上
  0
TEXT
  8
0-0
 10
292.05564
 20
101.21233
 40
3
 41
1
 50
0
  1
起　伏
  0
TEXT
  8
0-0
 10
292.05564
 20
97.212325
 40
3
 41
1
 50
0
  1
旋　回
  0
TEXT
  8
0-0
 10
277.76292
 20
89.212324
 40
3
 41
1
 50
0
  1
電動機
  0
TEXT
  8
0-0
 10
292.05564
 20
93.212312
 40
3
 41
1
 50
0
  1
巻　上
  0
TEXT
  8
0-0
 10
292.05564
 20
89.212324
 40
3
 41
1
 50
0
  1
起　伏
  0
TEXT
  8
0-0
 10
292.05564
 20
85.21231
 40
3
 41
1
 50
0
  1
旋　回
  0
TEXT
  8
0-0
 10
278.43888
 20
79.183662
 40
3
 41
1
 50
0
  1
安　全　装　置
  0
TEXT
  8
0-0
 10
278.43888
 20
73.183642
 40
3
 41
1
 50
0
  1
操　作　方　式
  0
TEXT
  8
0-0
 10
278.43888
 20
65.183665
 40
3
 41
1
 50
0
  1
電　　　　　源
  0
TEXT
  8
0-0
 10
306.5762
 20
81.209377
 40
3
 41
1
 50
0
  1
過巻防止・起伏制限・旋回制限　各装置付
  0
TEXT
  8
0-0
 10
306.5762
 20
77.209364
 40
3
 41
1
 50
0
  1
ﾓｰﾒﾝﾄﾘﾐｯﾀｰ装備
  0
TEXT
  8
0-0
 10
302.18563
 20
125.20937
 40
3
 41
1
 50
0
  1
仕　　　　　　　　　　　　　　　様
  0
TEXT
  8
0-0
 10
306.5762
 20
65.209374
 40
3
 41
1
 50
0
  1
三相 50/60HZ 200/220V
  0
TEXT
  8
1-1
 10
478.76725
 20
182.01424
 40
3
 41
1
 50
0
  1
ＦＧ－３６Ｄ
  0
TEXT
  8
1-1
 10
553.76725
 20
182.01424
 40
3
 41
1
 50
0
  1
ＦＧ－３６ＷＤ
  0
TEXT
  8
1-1
 10
515.37488
 20
175.59845
 40
3
 41
1
 50
0
  1
２０．０Ｍ
  0
TEXT
  8
1-1
 10
462.03962
 20
175.75968
 40
3
 41
1
 50
0
  1
３．０～１８Ｍ
  0
TEXT
  8
1-1
 10
462.03962
 20
169.7597
 40
3
 41
1
 50
0
  1
２．０Ｔ
  0
TEXT
  8
1-1
 10
515.9332
 20
169.7483
 40
3
 41
1
 50
0
  1
１．８Ｔ
  0
TEXT
  8
1-1
 10
514.81086
 20
164.01422
 40
3
 41
1
 50
0
  1
７０Ｍ
  0
TEXT
  8
1-1
 10
465.98446
 20
157.74102
 40
3
 41
1
 50
0
  1
高速２１／２５Ｍ／min  微速２．５／３．０／Ｍ／min
  0
TEXT
  8
1-1
 10
464.9123
 20
151.89115
 40
3
 41
1
 50
0
  1
２．１Ｍ／１．９Ｍ／min
  0
TEXT
  8
1-1
 10
464.9123
 20
145.89117
 40
3
 41
1
 50
0
  1
０．５２／０．６２rpm
  0
TEXT
  8
0-0
 10
275.40539
 20
68.756758
 40
3
 41
1
 50
0
  1
総重量
  0
TEXT
  8
0-0
 10
306.59501
 20
73.232598
 40
3
 41
1
 50
0
  1
押しボタン式遠隔操作方式
  0
TEXT
  8
1-0
 10
76.674362
 20
101.04054
 40
3
 41
1
 50
0
  1
3,000
  0
TEXT
  8
1-0
 10
15.804344
 20
45.597167
 40
3
 41
1
 50
90
  1
4,733
  0
TEXT
  8
1-0
 10
15.804344
 20
17.204755
 40
3
 41
1
 50
90
  1
1,252
  0
TEXT
  8
1-0
 10
15.804344
 20
10.412164
 40
3
 41
1
 50
90
  1
150
  0
TEXT
  8
1-0
 10
41.672509
 20
83.202703
 40
3
 41
1
 50
0
  1
4,000
  0
TEXT
  8
1-0
 10
60.544664
 20
78.947716
 40
3
 41
1
 50
0
  1
370
  0
TEXT
  8
1-0
 10
61.675742
 20
279.60165
 40
3
 41
1
 50
0
  1
4,511
  0
TEXT
  8
1-0
 10
69.219075
 20
264.20958
 40
3
 41
1
 50
45.00003
  1
6,380
  0
TEXT
  8
1-0
 10
48.385449
 20
218.29173
 40
3
 41
1
 50
59.999984
  1
R4,050
  0
TEXT
  8
1-0
 10
99.174498
 20
260.5567
 40
3
 41
1
 50
0
  1
最大直圧力６．０９Ｔ
  0
TEXT
  8
1-0
 10
150.79935
 20
45.905403
 40
3
 41
1
 50
0
  1
18,000
  0
TEXT
  8
1-0
 10
23.955805
 20
26.680201
 40
3
 41
1
 50
90
  1
600
  0
TEXT
  8
0-0
 10
316.49802
 20
19.168312
 40
3
 41
1
 50
0
  1
１／１００
  0
TEXT
  8
0-0
 10
320.9308
 20
36.808934
 40
4
 41
1
 50
0
  1
ＦＧ－２０Ｗ
  0
TEXT
  8
0-0
 10
7.6924918
 20
279.6791
 40
3
 41
1
 50
0
  1
FG-20W
  0
TEXT
  8
0-0
 10
338.53907
 20
121.34843
 40
3
 41
1
 50
0
  1
ＦＧ－２０Ｗ
  0
TEXT
  8
0-0
 10
313.09713
 20
117.34843
 40
3
 41
1
 50
0
  1
３～１０Ｍ
  0
TEXT
  8
0-0
 10
346.09714
 20
117.34843
 40
3
 41
1
 50
0
  1
１３Ｍ
  0
TEXT
  8
0-0
 10
379.09715
 20
117.34843
 40
3
 41
1
 50
0
  1
１８Ｍ
  0
TEXT
  8
0-0
 10
313.09713
 20
113.34844
 40
3
 41
1
 50
0
  1
２．０ｔ
  0
TEXT
  8
0-0
 10
346.09714
 20
113.34844
 40
3
 41
1
 50
0
  1
１．５ｔ
  0
TEXT
  8
0-0
 10
379.09715
 20
113.34844
 40
3
 41
1
 50
0
  1
１．０ｔ
  0
TEXT
  8
0-0
 10
345.63913
 20
109.34843
 40
3
 41
1
 50
0
  1
５０ｍ
  0
TEXT
  8
0-0
 10
329.07232
 20
105.34844
 40
3
 41
1
 50
0
  1
１８ｍ／ｍｉｎ
  0
TEXT
  8
0-0
 10
329.07232
 20
101.34843
 40
3
 41
1
 50
0
  1
１４．９ｍ／ｍｉｎ
  0
TEXT
  8
0-0
 10
329.07232
 20
97.348417
 40
3
 41
1
 50
0
  1
０．４６ＲＰＭ
  0
TEXT
  8
0-0
 10
329.07232
 20
93.348429
 40
3
 41
1
 50
0
  1
６ｋｗ
  0
TEXT
  8
0-0
 10
329.07232
 20
89.348416
 40
3
 41
1
 50
0
  1
４ｋｗ
  0
TEXT
  8
0-0
 10
329.07232
 20
85.348427
 40
3
 41
1
 50
0
  1
０．５ｋｗ
  0
TEXT
  8
0-0
 10
335.87654
 20
69.052597
 40
3
 41
1
 50
0
  1
７，８７４ｋｇ
  0
POINT
  8
1-0
 62
    4
 10
65.924364
 20
100.54053
  0
POINT
  8
1-0
 62
    4
 10
95.924364
 20
100.54053
  0
POINT
  8
1-0
 62
    4
 10
16.304344
 20
73.512168
  0
POINT
  8
1-0
 62
    4
 10
16.304344
 20
26.182164
  0
POINT
  8
1-0
 62
    4
 10
16.304344
 20
13.662191
  0
POINT
  8
1-0
 62
    4
 10
16.304344
 20
26.182151
  0
POINT
  8
1-0
 62
    4
 10
16.304344
 20
12.162162
  0
POINT
  8
1-0
 62
    4
 10
16.304344
 20
13.662167
  0
POINT
  8
1-0
 62
    4
 10
25.920657
 20
82.702702
  0
POINT
  8
1-0
 62
    4
 10
65.924364
 20
82.702702
  0
POINT
  8
1-0
 62
    4
 10
62.226957
 20
78.406478
  0
POINT
  8
1-0
 62
    4
 10
65.924364
 20
78.406478
  0
POINT
  8
1-0
 62
    4
 10
43.369043
 20
279.10165
  0
POINT
  8
1-0
 62
    4
 10
88.482438
 20
279.10165
  0
POINT
  8
1-0
 62
    4
 10
82.357727
 20
275.97846
  0
POINT
  8
1-0
 62
    4
 10
37.244193
 20
230.86494
  0
POINT
  8
1-0
 62
    4
 10
65.924364
 20
45.405405
  0
POINT
  8
1-0
 62
    4
 10
245.92435
 20
45.405405
  0
POINT
  8
1-0
 62
    4
 10
24.455805
 20
26.182151
  0
POINT
  8
1-0
 62
    4
 10
24.455805
 20
32.178252
  0
ENDSEC
  0
EOF
